  0
SECTION
  2
HEADER
  9
$ACADVER
  1
AC1015
  9
$ACADMAINTVER
 70
     6
  9
$DWGCODEPAGE
  3
ANSI_1251
  9
$INSBASE
 10
0.0
 20
0.0
 30
0.0
  9
$EXTMIN
 10
0.0
 20
0.0
 30
0.0
  9
$EXTMAX
 10
431.8
 20
279.4
 30
0.0
  9
$LIMMIN
 10
0.0
 20
0.0
  9
$LIMMAX
 10
431.8
 20
279.4
  9
$ORTHOMODE
 70
     0
  9
$REGENMODE
 70
     1
  9
$FILLMODE
 70
     1
  9
$QTEXTMODE
 70
     0
  9
$MIRRTEXT
 70
     1
  9
$LTSCALE
 40
1.0
  9
$ATTMODE
 70
     1
  9
$TEXTSIZE
 40
3.5
  9
$TRACEWID
 40
1.0
  9
$TEXTSTYLE
  7
STANDARD
  9
$CLAYER
  8
0
  9
$CELTYPE
  6
ByLayer
  9
$CECOLOR
 62
   256
  9
$CELTSCALE
 40
1.0
  9
$DISPSILH
 70
     0
  9
$DIMSCALE
 40
1.0
  9
$DIMASZ
 40
5.0
  9
$DIMEXO
 40
0.0
  9
$DIMDLI
 40
3.75
  9
$DIMRND
 40
0.0
  9
$DIMDLE
 40
0.0
  9
$DIMEXE
 40
1.0
  9
$DIMTP
 40
0.0
  9
$DIMTM
 40
0.0
  9
$DIMTXT
 40
3.5
  9
$DIMCEN
 40
2.5
  9
$DIMTSZ
 40
0.0
  9
$DIMTOL
 70
     0
  9
$DIMLIM
 70
     0
  9
$DIMTIH
 70
     1
  9
$DIMTOH
 70
     1
  9
$DIMSE1
 70
     0
  9
$DIMSE2
 70
     0
  9
$DIMTAD
 70
     1
  9
$DIMZIN
 70
     0
  9
$DIMBLK
  1

  9
$DIMASO
 70
     1
  9
$DIMSHO
 70
     1
  9
$DIMPOST
  1

  9
$DIMAPOST
  1

  9
$DIMALT
 70
     0
  9
$DIMALTD
 70
     3
  9
$DIMALTF
 40
0.0393700787
  9
$DIMLFAC
 40
1.0
  9
$DIMTOFL
 70
     1
  9
$DIMTVP
 40
0.0
  9
$DIMTIX
 70
     0
  9
$DIMSOXD
 70
     0
  9
$DIMSAH
 70
     0
  9
$DIMBLK1
  1

  9
$DIMBLK2
  1

  9
$DIMSTYLE
  2
ISO-25
  9
$DIMCLRD
 70
     0
  9
$DIMCLRE
 70
     0
  9
$DIMCLRT
 70
     0
  9
$DIMTFAC
 40
1.0
  9
$DIMGAP
 40
1.5
  9
$DIMJUST
 70
     0
  9
$DIMSD1
 70
     0
  9
$DIMSD2
 70
     0
  9
$DIMTOLJ
 70
     0
  9
$DIMTZIN
 70
     0
  9
$DIMALTZ
 70
     0
  9
$DIMALTTZ
 70
     0
  9
$DIMUPT
 70
     0
  9
$DIMDEC
 70
     1
  9
$DIMTDEC
 70
     3
  9
$DIMALTU
 70
     2
  9
$DIMALTTD
 70
     3
  9
$DIMTXSTY
  7
STANDARD
  9
$DIMAUNIT
 70
     0
  9
$DIMADEC
 70
     2
  9
$DIMALTRND
 40
0.0
  9
$DIMAZIN
 70
     0
  9
$DIMDSEP
 70
    44
  9
$DIMATFIT
 70
     3
  9
$DIMFRAC
 70
     0
  9
$DIMLDRBLK
  1

  9
$DIMLUNIT
 70
     2
  9
$DIMLWD
 70
    -2
  9
$DIMLWE
 70
    -2
  9
$DIMTMOVE
 70
     0
  9
$LUNITS
 70
     2
  9
$LUPREC
 70
     3
  9
$SKETCHINC
 40
1.0
  9
$FILLETRAD
 40
0.0
  9
$AUNITS
 70
     0
  9
$AUPREC
 70
     2
  9
$MENU
  1
.
  9
$ELEVATION
 40
0.0
  9
$PELEVATION
 40
0.0
  9
$THICKNESS
 40
0.0
  9
$LIMCHECK
 70
     0
  9
$CHAMFERA
 40
0.0
  9
$CHAMFERB
 40
0.0
  9
$CHAMFERC
 40
0.0
  9
$CHAMFERD
 40
0.0
  9
$SKPOLY
 70
     0
  9
$TDCREATE
 40
2461039.679458576
  9
$TDUCREATE
 40
2461039.554458576
  9
$TDUPDATE
 40
2461039.679459479
  9
$TDUUPDATE
 40
2461039.554459479
  9
$TDINDWG
 40
0.0000000116
  9
$TDUSRTIMER
 40
0.0000000116
  9
$USRTIMER
 70
     1
  9
$ANGBASE
 50
0.0
  9
$ANGDIR
 70
     0
  9
$PDMODE
 70
     0
  9
$PDSIZE
 40
-1.0
  9
$PLINEWID
 40
0.0
  9
$SPLFRAME
 70
     0
  9
$SPLINETYPE
 70
     6
  9
$SPLINESEGS
 70
     8
  9
$HANDSEED
  5
3BB
  9
$SURFTAB1
 70
     6
  9
$SURFTAB2
 70
     6
  9
$SURFTYPE
 70
     6
  9
$SURFU
 70
     6
  9
$SURFV
 70
     6
  9
$UCSBASE
  2

  9
$UCSNAME
  2

  9
$UCSORG
 10
0.0
 20
0.0
 30
0.0
  9
$UCSXDIR
 10
1.0
 20
0.0
 30
0.0
  9
$UCSYDIR
 10
0.0
 20
1.0
 30
0.0
  9
$UCSORTHOREF
  2

  9
$UCSORTHOVIEW
 70
     0
  9
$UCSORGTOP
 10
0.0
 20
0.0
 30
0.0
  9
$UCSORGBOTTOM
 10
0.0
 20
0.0
 30
0.0
  9
$UCSORGLEFT
 10
0.0
 20
0.0
 30
0.0
  9
$UCSORGRIGHT
 10
0.0
 20
0.0
 30
0.0
  9
$UCSORGFRONT
 10
0.0
 20
0.0
 30
0.0
  9
$UCSORGBACK
 10
0.0
 20
0.0
 30
0.0
  9
$PUCSBASE
  2

  9
$PUCSNAME
  2

  9
$PUCSORG
 10
0.0
 20
0.0
 30
0.0
  9
$PUCSXDIR
 10
1.0
 20
0.0
 30
0.0
  9
$PUCSYDIR
 10
0.0
 20
1.0
 30
0.0
  9
$PUCSORTHOREF
  2

  9
$PUCSORTHOVIEW
 70
     0
  9
$PUCSORGTOP
 10
0.0
 20
0.0
 30
0.0
  9
$PUCSORGBOTTOM
 10
0.0
 20
0.0
 30
0.0
  9
$PUCSORGLEFT
 10
0.0
 20
0.0
 30
0.0
  9
$PUCSORGRIGHT
 10
0.0
 20
0.0
 30
0.0
  9
$PUCSORGFRONT
 10
0.0
 20
0.0
 30
0.0
  9
$PUCSORGBACK
 10
0.0
 20
0.0
 30
0.0
  9
$USERI1
 70
     0
  9
$USERI2
 70
     0
  9
$USERI3
 70
     0
  9
$USERI4
 70
     0
  9
$USERI5
 70
     0
  9
$USERR1
 40
0.0
  9
$USERR2
 40
0.0
  9
$USERR3
 40
0.0
  9
$USERR4
 40
0.0
  9
$USERR5
 40
0.0
  9
$WORLDVIEW
 70
     1
  9
$SHADEDGE
 70
     3
  9
$SHADEDIF
 70
    70
  9
$TILEMODE
 70
     1
  9
$MAXACTVP
 70
    64
  9
$PINSBASE
 10
0.0
 20
0.0
 30
0.0
  9
$PLIMCHECK
 70
     0
  9
$PEXTMIN
 10
1.0000000000E+20
 20
1.0000000000E+20
 30
1.0000000000E+20
  9
$PEXTMAX
 10
-1.0000000000E+20
 20
-1.0000000000E+20
 30
-1.0000000000E+20
  9
$PLIMMIN
 10
0.0
 20
0.0
  9
$PLIMMAX
 10
420.0
 20
297.0
  9
$UNITMODE
 70
     0
  9
$VISRETAIN
 70
     1
  9
$PLINEGEN
 70
     0
  9
$PSLTSCALE
 70
     1
  9
$TREEDEPTH
 70
  3020
  9
$CMLSTYLE
  2
Standard
  9
$CMLJUST
 70
     0
  9
$CMLSCALE
 40
20.0
  9
$PROXYGRAPHICS
 70
     1
  9
$MEASUREMENT
 70
     1
  9
$CELWEIGHT
370
    -1
  9
$ENDCAPS
280
     0
  9
$JOINSTYLE
280
     0
  9
$LWDISPLAY
290
     1
  9
$INSUNITS
 70
     4
  9
$HYPERLINKBASE
  1

  9
$STYLESHEET
  1

  9
$XEDIT
290
     1
  9
$CEPSNTYPE
380
     0
  9
$PSTYLEMODE
290
     1
  9
$FINGERPRINTGUID
  2
{b26335f4-6664-4ca1-8b0f-94d33d8870ad}
  9
$VERSIONGUID
  2
{FAEB1C32-E019-11D5-929B-00C0DF256EC4}
  9
$EXTNAMES
290
     1
  9
$PSVPSCALE
 40
0.0
  9
$OLESTARTUP
290
     0
  0
ENDSEC
  0
SECTION
  2
CLASSES
  0
CLASS
  1
ACDBDICTIONARYWDFLT
  2
AcDbDictionaryWithDefault
  3
ObjectDBX Classes
 90
        0
280
     0
281
     0
  0
CLASS
  1
VISUALSTYLE
  2
AcDbVisualStyle
  3
ObjectDBX Classes
 90
     4095
280
     0
281
     0
  0
CLASS
  1
MATERIAL
  2
AcDbMaterial
  3
ObjectDBX Classes
 90
     1153
280
     0
281
     0
  0
CLASS
  1
SCALE
  2
AcDbScale
  3
ObjectDBX Classes
 90
     1153
280
     0
281
     0
  0
CLASS
  1
TABLESTYLE
  2
AcDbTableStyle
  3
ObjectDBX Classes
 90
     4095
280
     0
281
     0
  0
CLASS
  1
MLEADERSTYLE
  2
AcDbMLeaderStyle
  3
ACDB_MLEADERSTYLE_CLASS
 90
     4095
280
     0
281
     0
  0
CLASS
  1
SUN
  2
AcDbSun
  3
SCENEOE
 90
     1153
280
     0
281
     0
  0
CLASS
  1
ACDBPLACEHOLDER
  2
AcDbPlaceHolder
  3
ObjectDBX Classes
 90
        0
280
     0
281
     0
  0
CLASS
  1
LAYOUT
  2
AcDbLayout
  3
ObjectDBX Classes
 90
        0
280
     0
281
     0
  0
ENDSEC
  0
SECTION
  2
TABLES
  0
TABLE
  2
VPORT
  5
8
330
0
100
AcDbSymbolTable
 70
     1
  0
VPORT
  5
29
330
8
100
AcDbSymbolTableRecord
100
AcDbViewportTableRecord
  2
*Active
 70
     0
 10
0.0
 20
0.0
 11
1.0
 21
1.0
 12
215.9
 22
139.7
 13
0.0
 23
0.0
 14
10.0
 24
10.0
 15
10.0
 25
10.0
 16
0.0
 26
0.0
 36
1.0
 17
0.0
 27
0.0
 37
0.0
 40
279.4
 41
1.5454545455
 42
50.0
 43
0.0
 44
0.0
 50
0.0
 51
0.0
 71
     0
 72
  2000
 73
     1
 74
     3
 75
     0
 76
     0
 77
     0
 78
     0
281
     0
 65
     1
110
0.0
120
0.0
130
0.0
111
1.0
121
0.0
131
0.0
112
0.0
122
1.0
132
0.0
 79
     0
146
0.0
  0
ENDTAB
  0
TABLE
  2
LTYPE
  5
5
330
0
100
AcDbSymbolTable
 70
     8
  0
LTYPE
  5
14
330
5
100
AcDbSymbolTableRecord
100
AcDbLinetypeTableRecord
  2
ByBlock
 70
     0
  3

 72
    65
 73
     0
 40
0.0
  0
LTYPE
  5
15
330
5
100
AcDbSymbolTableRecord
100
AcDbLinetypeTableRecord
  2
ByLayer
 70
     0
  3

 72
    65
 73
     0
 40
0.0
  0
LTYPE
  5
16
330
5
100
AcDbSymbolTableRecord
100
AcDbLinetypeTableRecord
  2
Continuous
 70
     0
  3
Solid line
 72
    65
 73
     0
 40
0.0
  0
LTYPE
  5
5E
330
5
100
AcDbSymbolTableRecord
100
AcDbLinetypeTableRecord
  2
SLD-Сплошная
 70
     0
  3
SolidWorks Line Style
 72
    65
 73
     0
 40
0.0
  0
LTYPE
  5
5F
330
5
100
AcDbSymbolTableRecord
100
AcDbLinetypeTableRecord
  2
SLD-Штриховая
 70
     0
  3
SolidWorks Line Style
 72
    65
 73
     2
 40
1.905
 49
1.27
 74
     0
 49
-0.635
 74
     0
  0
LTYPE
  5
60
330
5
100
AcDbSymbolTableRecord
100
AcDbLinetypeTableRecord
  2
SLD-Штрихпункт.-с-двумя-точками
 70
     0
  3
SolidWorks Line Style
 72
    65
 73
     6
 40
12.7
 49
6.35
 74
     0
 49
-1.27
 74
     0
 49
1.27
 74
     0
 49
-1.27
 74
     0
 49
1.27
 74
     0
 49
-1.27
 74
     0
  0
LTYPE
  5
61
330
5
100
AcDbSymbolTableRecord
100
AcDbLinetypeTableRecord
  2
SLD-Штрихпункт.-утолщ.
 70
     0
  3
SolidWorks Line Style
 72
    65
 73
     4
 40
10.16
 49
6.35
 74
     0
 49
-1.27
 74
     0
 49
1.27
 74
     0
 49
-1.27
 74
     0
  0
LTYPE
  5
62
330
5
100
AcDbSymbolTableRecord
100
AcDbLinetypeTableRecord
  2
SLD-Осевая
 70
     0
  3
SolidWorks Line Style
 72
    65
 73
     4
 40
19.05
 49
15.24
 74
     0
 49
-1.27
 74
     0
 49
1.27
 74
     0
 49
-1.27
 74
     0
  0
LTYPE
  5
63
330
5
100
AcDbSymbolTableRecord
100
AcDbLinetypeTableRecord
  2
SLD-Сшитая
 70
     0
  3
SolidWorks Line Style
 72
    65
 73
     2
 40
0.635
 49
0.0
 74
     0
 49
-0.635
 74
     0
  0
LTYPE
  5
64
330
5
100
AcDbSymbolTableRecord
100
AcDbLinetypeTableRecord
  2
SLD-Тонкая-Толстая
 70
     0
  3
SolidWorks Line Style
 72
    65
 73
     2
 40
5.080508
 49
0.000508
 74
     0
 49
-5.08
 74
     0
  0
ENDTAB
  0
TABLE
  2
LAYER
  5
2
330
0
100
AcDbSymbolTable
 70
     3
  0
LAYER
  5
10
330
2
100
AcDbSymbolTableRecord
100
AcDbLayerTableRecord
  2
0
 70
     0
 62
     7
  6
Continuous
370
    -3
390
F
  0
LAYER
  5
65
330
2
100
AcDbSymbolTableRecord
100
AcDbLayerTableRecord
  2
ВОДЯНОЙ_ЗНАК
 70
     0
 62
    11
  6
SLD-Сплошная
370
    -3
390
F
  0
LAYER
  5
66
330
2
100
AcDbSymbolTableRecord
100
AcDbLayerTableRecord
  2
ОСНОВНОЙ
 70
     0
 62
     7
  6
SLD-Сплошная
370
    -3
390
F
  0
ENDTAB
  0
TABLE
  2
STYLE
  5
3
330
0
100
AcDbSymbolTable
 70
     1
  0
STYLE
  5
11
330
3
100
AcDbSymbolTableRecord
100
AcDbTextStyleTableRecord
  2
STANDARD
 70
     0
 40
0.0
 41
1.0
 50
0.0
 71
     0
 42
3.5
  3
GOST-TYPE-A.TTF
  4

1001
ACAD
1000
GOST TYPE A
1071
 16777250
  0
ENDTAB
  0
TABLE
  2
VIEW
  5
6
330
0
100
AcDbSymbolTable
 70
     0
  0
ENDTAB
  0
TABLE
  2
UCS
  5
7
330
0
100
AcDbSymbolTable
 70
     0
  0
ENDTAB
  0
TABLE
  2
APPID
  5
9
330
0
100
AcDbSymbolTable
 70
     1
  0
APPID
  5
12
330
9
100
AcDbSymbolTableRecord
100
AcDbRegAppTableRecord
  2
ACAD
 70
     0
  0
ENDTAB
  0
TABLE
  2
DIMSTYLE
  5
A
330
0
100
AcDbSymbolTable
 70
     1
100
AcDbDimStyleTable
  0
DIMSTYLE
105
27
330
A
100
AcDbSymbolTableRecord
100
AcDbDimStyleTableRecord
  2
ISO-25
 70
     0
 41
2.5
 42
0.625
 43
3.75
 44
1.25
 73
     0
 74
     0
 77
     1
 78
     8
140
2.5
141
2.5
143
0.0393700787
147
0.625
171
     3
172
     1
178
     0
271
     2
272
     2
274
     3
278
    44
283
     0
284
     8
340
11
  0
ENDTAB
  0
TABLE
  2
BLOCK_RECORD
  5
1
330
0
100
AcDbSymbolTable
 70
     1
  0
BLOCK_RECORD
  5
1F
330
1
100
AcDbSymbolTableRecord
100
AcDbBlockTableRecord
  2
*Model_Space
340
22
  0
BLOCK_RECORD
  5
1B
330
1
100
AcDbSymbolTableRecord
100
AcDbBlockTableRecord
  2
*Paper_Space
340
1E
  0
BLOCK_RECORD
  5
23
330
1
100
AcDbSymbolTableRecord
100
AcDbBlockTableRecord
  2
*Paper_Space0
340
26
  0
ENDTAB
  0
ENDSEC
  0
SECTION
  2
BLOCKS
  0
BLOCK
  5
20
330
1F
100
AcDbEntity
  8
0
100
AcDbBlockBegin
  2
*Model_Space
 70
     0
 10
0.0
 20
0.0
 30
0.0
  3
*Model_Space
  1

  0
ENDBLK
  5
21
330
1F
100
AcDbEntity
  8
0
100
AcDbBlockEnd
  0
BLOCK
  5
1C
330
1B
100
AcDbEntity
 67
     1
  8
0
100
AcDbBlockBegin
  2
*Paper_Space
 70
     0
 10
0.0
 20
0.0
 30
0.0
  3
*Paper_Space
  1

  0
ENDBLK
  5
1D
330
1B
100
AcDbEntity
 67
     1
  8
0
100
AcDbBlockEnd
  0
BLOCK
  5
24
330
23
100
AcDbEntity
  8
0
100
AcDbBlockBegin
  2
*Paper_Space0
 70
     0
 10
0.0
 20
0.0
 30
0.0
  3
*Paper_Space0
  1

  0
ENDBLK
  5
25
330
23
100
AcDbEntity
  8
0
100
AcDbBlockEnd
  0
ENDSEC
  0
SECTION
  2
ENTITIES
  0
LINE
  5
67
330
1F
100
AcDbEntity
  8
0
  6
SLD-Сплошная
 62
     7
370
    25
100
AcDbLine
 10
208.9194055185
 20
178.1393424219
 30
0.0
 11
177.3769558609
 21
178.1393424219
 31
0.0
  0
LINE
  5
68
330
1F
100
AcDbEntity
  8
0
  6
SLD-Сплошная
 62
     7
370
    25
100
AcDbLine
 10
177.3769558609
 20
124.1393424219
 30
0.0
 11
208.9194055185
 21
124.1393424219
 31
0.0
  0
SPLINE
  5
69
330
1F
100
AcDbEntity
  8
0
  6
SLD-Сплошная
 62
     7
370
    25
100
AcDbSpline
210
0.0
220
0.0
230
1.0
 70
     8
 71
     3
 72
     9
 73
     5
 74
     0
 42
0.00000001
 43
0.00000001
 40
0.0
 40
0.0
 40
0.0
 40
0.0
 40
0.484384019656607
 40
0.9999999999999999
 40
0.9999999999999999
 40
0.9999999999999999
 40
0.9999999999999999
 10
208.9194055181713
 20
124.1393424219415
 30
0.0
 10
210.9681107619228
 20
124.1844016310731
 30
0.0
 10
215.1976170226866
 20
124.2774253628706
 30
0.0
 10
219.3760268373224
 20
124.9420278077803
 30
0.0
 10
221.5304817101723
 20
125.284707448951
 30
0.0
  0
SPLINE
  5
6A
330
1F
100
AcDbEntity
  8
0
  6
SLD-Сплошная
 62
     7
370
    25
100
AcDbSpline
210
0.0
220
0.0
230
1.0
 70
     8
 71
     3
 72
     9
 73
     5
 74
     0
 42
0.00000001
 43
0.00000001
 40
0.0
 40
0.0
 40
0.0
 40
0.0
 40
0.4999999999754088
 40
1.0
 40
1.0
 40
1.0
 40
1.0
 10
221.5304817101723
 20
176.9939675406043
 30
0.0
 10
219.4416120376891
 20
177.3277382933008
 30
0.0
 10
215.2638726925174
 20
177.9952797987265
 30
0.0
 10
211.0342279096893
 20
178.0913151304712
 30
0.0
 10
208.9194055181713
 20
178.1393327963459
 30
0.0
  0
LINE
  5
6B
330
1F
100
AcDbEntity
  8
0
  6
SLD-Сплошная
 62
     7
370
    25
100
AcDbLine
 10
221.5305349813
 20
125.2844166094
 30
0.0
 11
250.1770091406
 21
130.5311638752
 31
0.0
  0
LINE
  5
6C
330
1F
100
AcDbEntity
  8
0
  6
SLD-Сплошная
 62
     7
370
    25
100
AcDbLine
 10
250.1770091424
 20
171.7475209744
 30
0.0
 11
221.5305349785
 21
176.994268241
 31
0.0
  0
ARC
  5
6D
330
1F
100
AcDbEntity
  8
0
  6
SLD-Сплошная
 62
     7
370
    25
100
AcDbCircle
 10
252.145528646
 20
173.9345393137
 30
0.0
 40
1.499999999377188
100
AcDbArc
 50
61.4221874433
 51
112.0389183353
  0
LINE
  5
6E
330
1F
100
AcDbEntity
  8
0
  6
SLD-Сплошная
 62
     7
370
    25
100
AcDbLine
 10
252.8634458464
 20
127.0261781355
 30
0.0
 11
258.5769558701
 21
130.1384152992
 31
0.0
  0
LINE
  5
6F
330
1F
100
AcDbEntity
  8
0
  6
SLD-Сплошная
 62
     7
370
    25
100
AcDbLine
 10
258.5769558701
 20
172.1402695426
 30
0.0
 11
252.8634458464
 21
175.2525067063
 31
0.0
  0
LINE
  5
70
330
1F
100
AcDbEntity
  8
0
  6
SLD-Сплошная
 62
     7
370
    25
100
AcDbLine
 10
269.27695587
 20
128.4504999079
 30
0.0
 11
272.27695587
 21
128.4504999079
 31
0.0
  0
LINE
  5
71
330
1F
100
AcDbEntity
  8
0
  6
SLD-Сплошная
 62
     7
370
    25
100
AcDbLine
 10
272.27695587
 20
173.7504999079
 30
0.0
 11
269.27695587
 21
173.7504999079
 31
0.0
  0
LINE
  5
72
330
1F
100
AcDbEntity
  8
0
  6
SLD-Сплошная
 62
     7
370
    25
100
AcDbLine
 10
269.27695587
 20
168.3504999079
 30
0.0
 11
258.57695587
 21
168.3504999079
 31
0.0
  0
LINE
  5
73
330
1F
100
AcDbEntity
  8
0
  6
SLD-Сплошная
 62
     7
370
    25
100
AcDbLine
 10
258.57695587
 20
133.8504999079
 30
0.0
 11
269.27695587
 21
133.8504999079
 31
0.0
  0
LINE
  5
74
330
1F
100
AcDbEntity
  8
0
  6
SLD-Сплошная
 62
     7
370
    25
100
AcDbLine
 10
177.37695587
 20
182.6393424219
 30
0.0
 11
174.8995083126
 21
182.6393424219
 31
0.0
  0
LINE
  5
75
330
1F
100
AcDbEntity
  8
0
  6
SLD-Сплошная
 62
     7
370
    25
100
AcDbLine
 10
148.3769558704
 20
182.6393424219
 30
0.0
 11
144.8324630179
 21
182.6393424219
 31
0.0
  0
LINE
  5
76
330
1F
100
AcDbEntity
  8
0
  6
SLD-Сплошная
 62
     7
370
    25
100
AcDbLine
 10
144.8324630179
 20
115.3393424219
 30
0.0
 11
177.37695587
 21
115.3393424219
 31
0.0
  0
SPLINE
  5
77
330
1F
100
AcDbEntity
  8
0
  6
SLD-Сплошная
 62
     7
370
    25
100
AcDbSpline
210
0.0
220
0.0
230
1.0
 70
     8
 71
     3
 72
    12
 73
     8
 74
     0
 42
0.00000001
 43
0.00000001
 40
0.0
 40
0.0
 40
0.0
 40
0.0
 40
0.2163914840979613
 40
0.4458648038187132
 40
0.6681158620219814
 40
0.8844980514785084
 40
1.0
 40
1.0
 40
1.0
 40
1.0
 10
123.41316774256
 20
152.1663538156159
 30
0.0
 10
123.3865762349675
 20
152.0306076999964
 30
0.0
 10
123.3317856438987
 20
151.7509090073138
 30
0.0
 10
123.3129331690434
 20
151.2747484851405
 30
0.0
 10
123.3250111555052
 20
150.7715093437079
 30
0.0
 10
123.3358024839654
 20
150.4223985506322
 30
0.0
 10
123.3983417886332
 20
150.190834434889
 30
0.0
 10
123.420106647877
 20
150.1102457489127
 30
0.0
  0
SPLINE
  5
78
330
1F
100
AcDbEntity
  8
0
  6
SLD-Сплошная
 62
     7
370
    25
100
AcDbSpline
210
0.0
220
0.0
230
1.0
 70
     8
 71
     3
 72
     9
 73
     5
 74
     0
 42
0.00000001
 43
0.00000001
 40
0.0
 40
0.0
 40
0.0
 40
0.0
 40
0.5060594097033437
 40
1.0
 40
1.0
 40
1.0
 40
1.0
 10
123.6153288475566
 20
152.504204457264
 30
0.0
 10
123.5568450476504
 20
152.4409054331056
 30
0.0
 10
123.4412779842093
 20
152.3158232333784
 30
0.0
 10
123.4052709519293
 20
152.2006340260975
 30
0.0
 10
123.3874856171502
 20
152.1437374010573
 30
0.0
  0
SPLINE
  5
79
330
1F
100
AcDbEntity
  8
0
  6
SLD-Сплошная
 62
     7
370
    25
100
AcDbSpline
210
0.0
220
0.0
230
1.0
 70
     8
 71
     3
 72
     9
 73
     5
 74
     0
 42
0.00000001
 43
0.00000001
 40
0.0
 40
0.0
 40
0.0
 40
0.0
 40
0.4941733029895762
 40
1.0
 40
1.0
 40
1.0
 40
1.0
 10
123.3876549130727
 20
150.1350184672427
 30
0.0
 10
123.4051153015903
 20
150.0791261402332
 30
0.0
 10
123.4404478224126
 20
149.9660234560708
 30
0.0
 10
123.5538164142529
 20
149.8414691264948
 30
0.0
 10
123.6111612746082
 20
149.778466221367
 30
0.0
  0
LINE
  5
7A
330
1F
100
AcDbEntity
  8
0
  6
SLD-Сплошная
 62
     7
370
    25
100
AcDbLine
 10
144.8324630179
 20
195.6396825757
 30
0.0
 11
139.4935309982
 21
195.6396825757
 31
0.0
  0
LINE
  5
7B
330
1F
100
AcDbEntity
  8
0
  6
SLD-Сплошная
 62
     7
370
    25
100
AcDbLine
 10
139.4935309982
 20
106.6396825757
 30
0.0
 11
144.8324630179
 21
106.6396825757
 31
0.0
  0
SPLINE
  5
7C
330
1F
100
AcDbEntity
  8
0
  6
SLD-Сплошная
 62
     7
370
    25
100
AcDbSpline
210
0.0
220
0.0
230
1.0
 70
     8
 71
     3
 72
    12
 73
     8
 74
     0
 42
0.00000001
 43
0.00000001
 40
0.0
 40
0.0
 40
0.0
 40
0.0
 40
0.0439101129442144
 40
0.0828457271922536
 40
0.2087213475622708
 40
0.3735289670837415
 40
0.9999999999999999
 40
0.9999999999999999
 40
0.9999999999999999
 40
0.9999999999999999
 10
124.8562367738691
 20
152.9760089233755
 30
0.0
 10
124.820593894423
 20
152.9751854011473
 30
0.0
 10
124.7533460540294
 20
152.9736316520614
 30
0.0
 10
124.6017719995036
 20
152.9574728331967
 30
0.0
 10
124.4195218033736
 20
152.9196654538264
 30
0.0
 10
124.043878691905
 20
152.8020128126927
 30
0.0
 10
123.8873765778753
 20
152.6823869858994
 30
0.0
 10
123.7634707442885
 20
152.5876768416995
 30
0.0
  0
LINE
  5
7D
330
1F
100
AcDbEntity
  8
0
  6
SLD-Сплошная
 62
     7
370
    25
100
AcDbLine
 10
123.6865347459
 20
152.5436592225
 30
0.0
 11
123.6110570263
 21
152.5004759326
 31
0.0
  0
SPLINE
  5
7E
330
1F
100
AcDbEntity
  8
0
  6
SLD-Сплошная
 62
     7
370
    25
100
AcDbSpline
210
0.0
220
0.0
230
1.0
 70
     8
 71
     3
 72
    13
 73
     9
 74
     0
 42
0.00000001
 43
0.00000001
 40
0.0
 40
0.0
 40
0.0
 40
0.0
 40
0.6184784367643724
 40
0.7659058631687896
 40
0.849091457411291
 40
0.9210853742076058
 40
0.9599009996720499
 40
1.0
 40
1.0
 40
1.0
 40
1.0
 10
123.6112751720904
 20
149.7783656197831
 30
0.0
 10
123.7592001130988
 20
149.6653048516645
 30
0.0
 10
123.9423860948444
 20
149.525293656368
 30
0.0
 10
124.3130800424721
 20
149.3914364960919
 30
0.0
 10
124.4777813954558
 20
149.3470260306744
 30
0.0
 10
124.6110757019842
 20
149.321597589567
 30
0.0
 10
124.7399544056439
 20
149.3062140878478
 30
0.0
 10
124.8168983830028
 20
149.3042405670293
 30
0.0
 10
124.8559960349572
 20
149.3032377591068
 30
0.0
  0
ARC
  5
7F
330
1F
100
AcDbEntity
  8
0
  6
SLD-Сплошная
 62
     7
370
    25
100
AcDbCircle
 10
509.5980903435
 20
151.1396825757
 30
0.0
 40
384.9656273255349
100
AcDbArc
 50
173.6616564148
 51
175.9408926991
  0
ARC
  5
80
330
1F
100
AcDbEntity
  8
0
  6
SLD-Сплошная
 62
     7
370
    25
100
AcDbCircle
 10
509.5980903435
 20
151.1396825757
 30
0.0
 40
384.9656273255353
100
AcDbArc
 50
184.0591073009
 51
186.3383435853
  0
LINE
  5
81
330
1F
100
AcDbEntity
  8
0
  6
SLD-Сплошная
 62
     7
370
    25
100
AcDbLine
 10
124.855996035
 20
149.3032376332
 30
0.0
 11
126.8902519745
 21
149.3032376332
 31
0.0
  0
LINE
  5
82
330
1F
100
AcDbEntity
  8
0
  6
SLD-Сплошная
 62
     7
370
    25
100
AcDbLine
 10
126.8900498707
 20
152.9760090492
 30
0.0
 11
124.8562367739
 21
152.9760090492
 31
0.0
  0
LINE
  5
83
330
1F
100
AcDbEntity
  8
0
  6
SLD-Сплошная
 62
     7
370
    25
100
AcDbLine
 10
138.548667112
 20
108.529410342
 30
0.0
 11
139.4935309982
 21
106.6396825757
 31
0.0
  0
LINE
  5
84
330
1F
100
AcDbEntity
  8
0
  6
SLD-Сплошная
 62
     7
370
    25
100
AcDbLine
 10
139.4935309982
 20
195.6396825757
 30
0.0
 11
138.548667112
 21
193.7499548093
 31
0.0
  0
LINE
  5
85
330
1F
100
AcDbEntity
  8
0
  6
SLD-Сплошная
 62
     7
370
    25
100
AcDbLine
 10
146.1658940432
 20
189.7958122052
 30
0.0
 11
144.8324630179
 21
189.7841755289
 31
0.0
  0
LINE
  5
86
330
1F
100
AcDbEntity
  8
0
  6
SLD-Сплошная
 62
     7
370
    25
100
AcDbLine
 10
126.9856438364
 20
108.6396825757
 30
0.0
 11
127.198470001
 21
108.6396825757
 31
0.0
  0
LINE
  5
87
330
1F
100
AcDbEntity
  8
0
  6
SLD-Сплошная
 62
     7
370
    25
100
AcDbLine
 10
127.198470001
 20
193.6396825757
 30
0.0
 11
126.9856438364
 21
193.6396825757
 31
0.0
  0
LINE
  5
88
330
1F
100
AcDbEntity
  8
0
  6
SLD-Сплошная
 62
     7
370
    25
100
AcDbLine
 10
148.3769558702
 20
181.8923941632
 30
0.0
 11
144.7769558714
 21
181.8923941579
 31
0.0
  0
LINE
  5
89
330
1F
100
AcDbEntity
  8
0
  6
SLD-Сплошная
 62
     7
370
    25
100
AcDbLine
 10
144.8324630179
 20
182.6379165009
 30
0.0
 11
148.3769558705
 21
182.6379165009
 31
0.0
  0
LINE
  5
8A
330
1F
100
AcDbEntity
  8
0
  6
SLD-Сплошная
 62
     7
370
    25
100
AcDbLine
 10
144.7769558702
 20
179.1036087517
 30
0.0
 11
148.3769558742
 21
179.1036087493
 31
0.0
  0
LINE
  5
8B
330
1F
100
AcDbEntity
  8
0
  6
SLD-Сплошная
 62
     7
370
    25
100
AcDbLine
 10
148.3769558705
 20
176.6344447805
 30
0.0
 11
152.4769558706
 21
176.6344447805
 31
0.0
  0
LINE
  5
8C
330
1F
100
AcDbEntity
  8
0
  6
SLD-Сплошная
 62
     7
370
    25
100
AcDbLine
 10
173.2769558699
 20
176.6344447805
 30
0.0
 11
152.4769558706
 21
176.6344447805
 31
0.0
  0
LINE
  5
8D
330
1F
100
AcDbEntity
  8
0
  6
SLD-Сплошная
 62
     7
370
    25
100
AcDbLine
 10
173.2769558699
 20
176.6344447807
 30
0.0
 11
177.37695587
 21
176.6344447805
 31
0.0
  0
LINE
  5
8E
330
1F
100
AcDbEntity
  8
0
  6
SLD-Сплошная
 62
     7
370
    25
100
AcDbLine
 10
177.37695587
 20
176.6344447805
 30
0.0
 11
177.37695587
 21
120.2777383264
 31
0.0
  0
LINE
  5
8F
330
1F
100
AcDbEntity
  8
0
  6
SLD-Сплошная
 62
     7
370
    25
100
AcDbLine
 10
177.37695587
 20
120.2777383264
 30
0.0
 11
144.7769558651
 21
120.277738318
 31
0.0
  0
ARC
  5
90
330
1F
100
AcDbEntity
  8
0
  6
SLD-Сплошная
 62
     7
370
    25
100
AcDbCircle
 10
252.145528646
 20
128.3441455301
 30
0.0
 40
1.499999999377285
100
AcDbArc
 50
247.9610816649
 51
298.5778125128
  0
ARC
  5
91
330
1F
100
AcDbEntity
  8
0
  6
SLD-Сплошная
 62
     7
370
    25
100
AcDbCircle
 10
252.4269558707
 20
129.0393424224
 30
0.0
 40
2.250000000653358
100
AcDbArc
 50
180.0000000238
 51
247.9610816727
  0
SPLINE
  5
92
330
1F
100
AcDbEntity
  8
0
  6
SLD-Сплошная
 62
     7
370
    25
100
AcDbSpline
210
0.0
220
0.0
230
1.0
 70
     8
 71
     3
 72
    29
 73
    25
 74
     0
 42
0.00000001
 43
0.00000001
 40
0.0
 40
0.0
 40
0.0
 40
0.0
 40
0.0109462654540345
 40
0.0226733681017016
 40
0.0351811043026061
 40
0.0484692348912824
 40
0.0625374854129791
 40
0.0825354558650742
 40
0.1250499130403799
 40
0.1931402270320342
 40
0.2500935302794031
 40
0.3749931360273051
 40
0.43748909109889
 40
0.5000009497236244
 40
0.562512808347353
 40
0.6250087634224536
 40
0.749908369165499
 40
0.8068640455334448
 40
0.8749519864630919
 40
0.9173939399814237
 40
0.9374644456585688
 40
0.9604428518949565
 40
0.9812884164861648
 40
1.0
 40
1.0
 40
1.0
 40
1.0
 10
250.1769558701203
 20
151.1393424219287
 30
0.0
 10
250.1769558690329
 20
151.0128182851206
 30
0.0
 10
250.1769558667804
 20
150.7507445815689
 30
0.0
 10
250.1769559234305
 20
150.344233480284
 30
0.0
 10
250.1769562504155
 20
149.910978625435
 30
0.0
 10
250.1769572164448
 20
149.4512418666586
 30
0.0
 10
250.1769594679128
 20
148.9060676786121
 30
0.0
 10
250.1769669615712
 20
148.0268750980859
 30
0.0
 10
250.1769910163489
 20
146.5372095878745
 30
0.0
 10
250.1770398704153
 20
144.6581501560568
 30
0.0
 10
250.1770805326201
 20
141.941377517163
 30
0.0
 10
250.1769939997575
 20
139.4280048427881
 30
0.0
 10
250.176954011881
 20
137.0982870891696
 30
0.0
 10
250.1769567993341
 20
135.4859552501015
 30
0.0
 10
250.1769540118208
 20
134.0315738585047
 30
0.0
 10
250.1769940000607
 20
132.3178779359211
 30
0.0
 10
250.1770805315179
 20
130.9837945397497
 30
0.0
 10
250.1770398727562
 20
129.9944280949798
 30
0.0
 10
250.1769910436546
 20
129.5086517052528
 30
0.0
 10
250.1769669605123
 20
129.2579963589385
 30
0.0
 10
250.1769586183914
 20
129.1419235324679
 30
0.0
 10
250.1769563172901
 20
129.0811447788147
 30
0.0
 10
250.1769558421092
 20
129.0453963256337
 30
0.0
 10
250.176955861102
 20
129.0412864852867
 30
0.0
 10
250.1769558700861
 20
129.0393424214558
 30
0.0
  0
SPLINE
  5
93
330
1F
100
AcDbEntity
  8
0
  6
SLD-Сплошная
 62
     7
370
    25
100
AcDbSpline
210
0.0
220
0.0
230
1.0
 70
     8
 71
     3
 72
    32
 73
    28
 74
     0
 42
0.00000001
 43
0.00000001
 40
0.0
 40
0.0
 40
0.0
 40
0.0
 40
0.0104240198980168
 40
0.0215526830041452
 40
0.0333858160054848
 40
0.0496981033025974
 40
0.0660069859148556
 40
0.0980915375514204
 40
0.1456229125392898
 40
0.2810627605552009
 40
0.3543106600406187
 40
0.4018429442567339
 40
0.4339291169547041
 40
0.4999054813326844
 40
0.5332872262742657
 40
0.5659060096773927
 40
0.6249225009761462
 40
0.6839559319861607
 40
0.7810897850384402
 40
0.8070217218336296
 40
0.8346879605554656
 40
0.8682988319844338
 40
0.9019083045188205
 40
0.9290133904695592
 40
0.9543980750365723
 40
0.9780607350972164
 40
1.0
 40
1.0
 40
1.0
 40
1.0
 10
250.1769558701636
 20
173.2393424221006
 30
0.0
 10
250.1769558692943
 20
173.2387402809536
 30
0.0
 10
250.176955867497
 20
173.2374952951043
 30
0.0
 10
250.1769559134139
 20
173.2269824797253
 30
0.0
 10
250.1769562125673
 20
173.2067163507097
 30
0.0
 10
250.1769572320422
 20
173.1719644183523
 30
0.0
 10
250.1769602738391
 20
173.1020394984108
 30
0.0
 10
250.1769725267331
 20
172.9549967795236
 30
0.0
 10
250.1770241376533
 20
172.4732707440695
 30
0.0
 10
250.1770845320737
 20
171.4853738294055
 30
0.0
 10
250.1770084697606
 20
170.0715486678473
 30
0.0
 10
250.1769711970313
 20
169.0873748584337
 30
0.0
 10
250.1769553767293
 20
168.0643683383776
 30
0.0
 10
250.176955979056
 20
167.0476421614673
 30
0.0
 10
250.1769558057965
 20
165.9390747357446
 30
0.0
 10
250.1769589723035
 20
164.837755463011
 30
0.0
 10
250.1769844875047
 20
163.4293121436758
 30
0.0
 10
250.1770470086666
 20
161.2928592683142
 30
0.0
 10
250.1770682427845
 20
159.3612587387491
 30
0.0
 10
250.1770383025965
 20
157.7099715024463
 30
0.0
 10
250.177016954469
 20
156.7418636982011
 30
0.0
 10
250.1769925900672
 20
155.6750178514034
 30
0.0
 10
250.1769708845598
 20
154.6026256892995
 30
0.0
 10
250.176959765704
 20
153.6163283382334
 30
0.0
 10
250.1769564497883
 20
152.73969606977
 30
0.0
 10
250.1769558312141
 20
151.9201449606383
 30
0.0
 10
250.1769558574825
 20
151.3929688944183
 30
0.0
 10
250.1769558701203
 20
151.1393424219287
 30
0.0
  0
ARC
  5
94
330
1F
100
AcDbEntity
  8
0
  6
SLD-Сплошная
 62
     7
370
    25
100
AcDbCircle
 10
252.4269558708
 20
173.2393424212
 30
0.0
 40
2.250000000653387
100
AcDbArc
 50
112.0389183264
 51
179.9999999763
  0
LINE
  5
95
330
1F
100
AcDbEntity
  8
0
  6
SLD-Сплошная
 62
     7
370
    25
100
AcDbLine
 10
258.5769558701
 20
130.138415299
 30
0.0
 11
258.5769558699
 21
151.1393424209
 31
0.0
  0
LINE
  5
96
330
1F
100
AcDbEntity
  8
0
  6
SLD-Сплошная
 62
     7
370
    25
100
AcDbLine
 10
258.5769558701
 20
172.1402695427
 30
0.0
 11
258.5769558699
 21
151.1393424209
 31
0.0
  0
LINE
  5
97
330
1F
100
AcDbEntity
  8
0
  6
SLD-Сплошная
 62
     7
370
    25
100
AcDbLine
 10
269.27695587
 20
162.6065241397
 30
0.0
 11
269.27695587
 21
128.4504999079
 31
0.0
  0
LINE
  5
98
330
1F
100
AcDbEntity
  8
0
  6
SLD-Сплошная
 62
     7
370
    25
100
AcDbLine
 10
272.27695587
 20
162.6065241397
 30
0.0
 11
272.27695587
 21
152.6471744405
 31
0.0
  0
LINE
  5
99
330
1F
100
AcDbEntity
  8
0
  6
SLD-Сплошная
 62
     7
370
    25
100
AcDbLine
 10
279.27695587
 20
152.6471744405
 30
0.0
 11
272.27695587
 21
152.6471744405
 31
0.0
  0
LINE
  5
9A
330
1F
100
AcDbEntity
  8
0
  6
SLD-Сплошная
 62
     7
370
    25
100
AcDbLine
 10
279.27695587
 20
149.9722711858
 30
0.0
 11
279.27695587
 21
152.6471744405
 31
0.0
  0
LINE
  5
9B
330
1F
100
AcDbEntity
  8
0
  6
SLD-Сплошная
 62
     7
370
    25
100
AcDbLine
 10
279.27695587
 20
149.9722711858
 30
0.0
 11
272.27695587
 21
149.9722711858
 31
0.0
  0
LINE
  5
9C
330
1F
100
AcDbEntity
  8
0
  6
SLD-Сплошная
 62
     7
370
    25
100
AcDbLine
 10
272.27695587
 20
149.9722711858
 30
0.0
 11
272.27695587
 21
132.3041482799
 31
0.0
  0
LINE
  5
9D
330
1F
100
AcDbEntity
  8
0
  6
SLD-Сплошная
 62
     7
370
    25
100
AcDbLine
 10
279.27695587
 20
132.3041482799
 30
0.0
 11
272.27695587
 21
132.3041482799
 31
0.0
  0
LINE
  5
9E
330
1F
100
AcDbEntity
  8
0
  6
SLD-Сплошная
 62
     7
370
    25
100
AcDbLine
 10
279.27695587
 20
132.3041482799
 30
0.0
 11
279.27695587
 21
130.9452600058
 31
0.0
  0
LINE
  5
9F
330
1F
100
AcDbEntity
  8
0
  6
SLD-Сплошная
 62
     7
370
    25
100
AcDbLine
 10
279.27695587
 20
130.9452600058
 30
0.0
 11
272.27695587
 21
130.9452600058
 31
0.0
  0
LINE
  5
A0
330
1F
100
AcDbEntity
  8
0
  6
SLD-Сплошная
 62
     7
370
    25
100
AcDbLine
 10
272.27695587
 20
130.9452600058
 30
0.0
 11
272.27695587
 21
128.4504999079
 31
0.0
  0
LINE
  5
A1
330
1F
100
AcDbEntity
  8
0
  6
SLD-Сплошная
 62
     7
370
    25
100
AcDbLine
 10
279.27695587
 20
130.7574737473
 30
0.0
 11
272.27695587
 21
130.7574737473
 31
0.0
  0
LINE
  5
A2
330
1F
100
AcDbEntity
  8
0
  6
SLD-Сплошная
 62
     7
370
    25
100
AcDbLine
 10
279.27695587
 20
142.0088247402
 30
0.0
 11
292.27695587
 21
142.0088247402
 31
0.0
  0
LINE
  5
A3
330
1F
100
AcDbEntity
  8
0
  6
SLD-Сплошная
 62
     7
370
    25
100
AcDbLine
 10
292.27695587
 20
142.0088247402
 30
0.0
 11
292.27695587
 21
140.2675947255
 31
0.0
  0
LINE
  5
A4
330
1F
100
AcDbEntity
  8
0
  6
SLD-Сплошная
 62
     7
370
    25
100
AcDbLine
 10
279.27695587
 20
140.2675947255
 30
0.0
 11
292.27695587
 21
140.2675947255
 31
0.0
  0
LINE
  5
A5
330
1F
100
AcDbEntity
  8
0
  6
SLD-Сплошная
 62
     7
370
    25
100
AcDbLine
 10
279.27695587
 20
140.2675947255
 30
0.0
 11
279.27695587
 21
132.3041482799
 31
0.0
  0
LINE
  5
A6
330
1F
100
AcDbEntity
  8
0
  6
SLD-Сплошная
 62
     7
370
    25
100
AcDbLine
 10
279.27695587
 20
142.0088247402
 30
0.0
 11
279.27695587
 21
149.9722711858
 31
0.0
  0
LINE
  5
A7
330
1F
100
AcDbEntity
  8
0
  6
SLD-Сплошная
 62
     7
370
    25
100
AcDbLine
 10
292.27695587
 20
162.2487044096
 30
0.0
 11
292.27695587
 21
160.5259811187
 31
0.0
  0
LINE
  5
A8
330
1F
100
AcDbEntity
  8
0
  6
SLD-Сплошная
 62
     7
370
    25
100
AcDbLine
 10
292.27695587
 20
160.5259811187
 30
0.0
 11
279.27695587
 21
160.5259811187
 31
0.0
  0
LINE
  5
A9
330
1F
100
AcDbEntity
  8
0
  6
SLD-Сплошная
 62
     7
370
    25
100
AcDbLine
 10
279.27695587
 20
170.1275110878
 30
0.0
 11
272.27695587
 21
170.1275110878
 31
0.0
  0
LINE
  5
AA
330
1F
100
AcDbEntity
  8
0
  6
SLD-Сплошная
 62
     7
370
    25
100
AcDbLine
 10
279.27695587
 20
162.2487044096
 30
0.0
 11
279.27695587
 21
170.1275110878
 31
0.0
  0
LINE
  5
AB
330
1F
100
AcDbEntity
  8
0
  6
SLD-Сплошная
 62
     7
370
    25
100
AcDbLine
 10
292.27695587
 20
162.2487044096
 30
0.0
 11
279.27695587
 21
162.2487044096
 31
0.0
  0
LINE
  5
AC
330
1F
100
AcDbEntity
  8
0
  6
SLD-Сплошная
 62
     7
370
    25
100
AcDbLine
 10
279.27695587
 20
160.5259811187
 30
0.0
 11
279.27695587
 21
152.6471744405
 31
0.0
  0
LINE
  5
AD
330
1F
100
AcDbEntity
  8
0
  6
SLD-Сплошная
 62
     7
370
    25
100
AcDbLine
 10
272.27695587
 20
173.7504999079
 30
0.0
 11
272.27695587
 21
171.4435260684
 31
0.0
  0
LINE
  5
AE
330
1F
100
AcDbEntity
  8
0
  6
SLD-Сплошная
 62
     7
370
    25
100
AcDbLine
 10
279.27695587
 20
171.4435260684
 30
0.0
 11
272.27695587
 21
171.4435260684
 31
0.0
  0
LINE
  5
AF
330
1F
100
AcDbEntity
  8
0
  6
SLD-Сплошная
 62
     7
370
    25
100
AcDbLine
 10
279.27695587
 20
170.1275110878
 30
0.0
 11
279.27695587
 21
171.4435260684
 31
0.0
  0
LINE
  5
B0
330
1F
100
AcDbEntity
  8
0
  6
SLD-Сплошная
 62
     7
370
    25
100
AcDbLine
 10
272.27695587
 20
170.1275110878
 30
0.0
 11
272.27695587
 21
162.6065241397
 31
0.0
  0
LINE
  5
B1
330
1F
100
AcDbEntity
  8
0
  6
SLD-Сплошная
 62
     7
370
    25
100
AcDbLine
 10
269.27695587
 20
173.7504999079
 30
0.0
 11
269.27695587
 21
162.6065241397
 31
0.0
  0
LINE
  5
B2
330
1F
100
AcDbEntity
  8
0
  6
SLD-Сплошная
 62
     7
370
    25
100
AcDbLine
 10
279.27695587
 20
160.106519759
 30
0.0
 11
292.27695587
 21
160.106519759
 31
0.0
  0
LINE
  5
B3
330
1F
100
AcDbEntity
  8
0
  6
SLD-Сплошная
 62
     7
370
    25
100
AcDbLine
 10
292.27695587
 20
142.4150519803
 30
0.0
 11
292.27695587
 21
160.106519759
 31
0.0
  0
LINE
  5
B4
330
1F
100
AcDbEntity
  8
0
  6
SLD-Сплошная
 62
     7
370
    25
100
AcDbLine
 10
292.27695587
 20
142.4150519803
 30
0.0
 11
279.27695587
 21
142.4150519803
 31
0.0
  0
ARC
  5
B5
330
1F
100
AcDbEntity
  8
0
  6
SLD-Сплошная
 62
     7
370
    25
100
AcDbCircle
 10
153.8769558702
 20
194.0743424219
 30
0.0
 40
2.060000000000116
100
AcDbArc
 50
89.9999999919
 51
270.0000000031
  0
LINE
  5
B6
330
1F
100
AcDbEntity
  8
0
  6
SLD-Сплошная
 62
     7
370
    25
100
AcDbLine
 10
153.8769558703
 20
192.0143424219
 30
0.0
 11
154.6769558702
 21
192.0143424219
 31
0.0
  0
ARC
  5
B7
330
1F
100
AcDbEntity
  8
0
  6
SLD-Сплошная
 62
     7
370
    25
100
AcDbCircle
 10
154.6769558702
 20
194.0743424219
 30
0.0
 40
2.060000000000116
100
AcDbArc
 50
270.0000000017
 51
89.9999999989
  0
LINE
  5
B8
330
1F
100
AcDbEntity
  8
0
  6
SLD-Сплошная
 62
     7
370
    25
100
AcDbLine
 10
154.6769558702
 20
196.1343424219
 30
0.0
 11
153.8769558705
 21
196.1343424216
 31
0.0
  0
LINE
  5
B9
330
1F
100
AcDbEntity
  8
0
  6
SLD-Сплошная
 62
     7
370
    25
100
AcDbLine
 10
148.3769558705
 20
176.6344447805
 30
0.0
 11
148.3769558702
 21
193.6263969919
 31
0.0
  0
ARC
  5
BA
330
1F
100
AcDbEntity
  8
0
  6
SLD-Сплошная
 62
     7
370
    25
100
AcDbCircle
 10
153.8769558702
 20
193.6263969919
 30
0.0
 40
5.500000000000028
100
AcDbArc
 50
49.0000000008
 51
180.0
  0
LINE
  5
BB
330
1F
100
AcDbEntity
  8
0
  6
SLD-Сплошная
 62
     7
370
    25
100
AcDbLine
 10
177.3769558702
 20
180.4857301166
 30
0.0
 11
157.4852805294
 21
197.777299683
 31
0.0
  0
LINE
  5
BC
330
1F
100
AcDbEntity
  8
0
  6
SLD-Сплошная
 62
     7
370
    25
100
AcDbLine
 10
177.37695587
 20
176.6344447805
 30
0.0
 11
177.3769558702
 21
180.4857301166
 31
0.0
  0
LINE
  5
BD
330
1F
100
AcDbEntity
  8
0
  6
SLD-Сплошная
 62
     7
370
    25
100
AcDbLine
 10
292.27695587
 20
142.4150519803
 30
0.0
 11
292.27695587
 21
142.0088247402
 31
0.0
  0
LINE
  5
BE
330
1F
100
AcDbEntity
  8
0
  6
SLD-Сплошная
 62
     7
370
    25
100
AcDbLine
 10
292.27695587
 20
160.5259811187
 30
0.0
 11
292.27695587
 21
160.106519759
 31
0.0
  0
LINE
  5
BF
330
1F
100
AcDbEntity
  8
0
  6
SLD-Сплошная
 62
     7
370
    25
100
AcDbLine
 10
292.27695587
 20
131.6863088382
 30
0.0
 11
279.27695587
 21
131.6863088382
 31
0.0
  0
LINE
  5
C0
330
1F
100
AcDbEntity
  8
0
  6
SLD-Сплошная
 62
     7
370
    25
100
AcDbLine
 10
292.27695587
 20
131.6863088382
 30
0.0
 11
292.27695587
 21
140.2675947255
 31
0.0
  0
LINE
  5
C1
330
1F
100
AcDbEntity
  8
0
  6
SLD-Сплошная
 62
     7
370
    25
100
AcDbLine
 10
279.27695587
 20
170.5331977012
 30
0.0
 11
292.27695587
 21
170.5331977012
 31
0.0
  0
LINE
  5
C2
330
1F
100
AcDbEntity
  8
0
  6
SLD-Сплошная
 62
     7
370
    25
100
AcDbLine
 10
292.27695587
 20
162.2487044096
 30
0.0
 11
292.27695587
 21
170.5331977012
 31
0.0
  0
LINE
  5
C3
330
1F
100
AcDbEntity
  8
0
  6
SLD-Сплошная
 62
     7
370
    25
100
AcDbLine
 10
177.37695587
 20
180.4857301167
 30
0.0
 11
177.37695587
 21
182.6393424219
 31
0.0
  0
LINE
  5
C4
330
1F
100
AcDbEntity
  8
0
  6
SLD-Сплошная
 62
     7
370
    25
100
AcDbLine
 10
292.27695587
 20
130.8606202384
 30
0.0
 11
279.27695587
 21
130.8606202384
 31
0.0
  0
LINE
  5
C5
330
1F
100
AcDbEntity
  8
0
  6
SLD-Сплошная
 62
     7
370
    25
100
AcDbLine
 10
292.27695587
 20
130.8421135147
 30
0.0
 11
279.27695587
 21
130.8421135147
 31
0.0
  0
LINE
  5
C6
330
1F
100
AcDbEntity
  8
0
  6
SLD-Сплошная
 62
     7
370
    25
100
AcDbLine
 10
279.27695587
 20
130.8421135147
 30
0.0
 11
279.27695587
 21
130.7574737473
 31
0.0
  0
LINE
  5
C7
330
1F
100
AcDbEntity
  8
0
  6
SLD-Сплошная
 62
     7
370
    25
100
AcDbLine
 10
279.27695587
 20
130.9452600058
 30
0.0
 11
279.27695587
 21
130.8606202384
 31
0.0
  0
LINE
  5
C8
330
1F
100
AcDbEntity
  8
0
  6
SLD-Сплошная
 62
     7
370
    25
100
AcDbLine
 10
292.27695587
 20
130.8606202384
 30
0.0
 11
292.27695587
 21
130.8421135147
 31
0.0
  0
LINE
  5
C9
330
1F
100
AcDbEntity
  8
0
  6
SLD-Сплошная
 62
     7
370
    25
100
AcDbLine
 10
177.37695587
 20
120.2777383264
 30
0.0
 11
177.37695587
 21
115.3393424219
 31
0.0
  0
LINE
  5
CA
330
1F
100
AcDbEntity
  8
0
  6
SLD-Сплошная
 62
     7
370
    25
100
AcDbLine
 10
292.27695587
 20
130.8606202384
 30
0.0
 11
292.27695587
 21
131.6863088382
 31
0.0
  0
LINE
  5
CB
330
1F
100
AcDbEntity
  8
0
  6
SLD-Сплошная
 62
     7
370
    25
100
AcDbLine
 10
292.27695587
 20
171.358886301
 30
0.0
 11
279.27695587
 21
171.358886301
 31
0.0
  0
LINE
  5
CC
330
1F
100
AcDbEntity
  8
0
  6
SLD-Сплошная
 62
     7
370
    25
100
AcDbLine
 10
292.27695587
 20
170.5331977012
 30
0.0
 11
292.27695587
 21
171.358886301
 31
0.0
  0
ARC
  5
CD
330
1F
100
AcDbEntity
  8
0
  6
SLD-Сплошная
 62
     7
370
    25
100
AcDbCircle
 10
154.6769558702
 20
194.0743424219
 30
0.0
 40
1.749999999854936
100
AcDbArc
 50
270.0000000882
 51
295.0000000308
  0
ARC
  5
CE
330
1F
100
AcDbEntity
  8
0
  6
SLD-Сплошная
 62
     7
370
    25
100
AcDbCircle
 10
154.6769558702
 20
194.0743424219
 30
0.0
 40
1.749999999695784
100
AcDbArc
 50
45.5729980539
 51
89.9999999088
  0
LWPOLYLINE
  5
CF
330
1F
100
AcDbEntity
  8
0
  6
SLD-Сплошная
 62
     7
370
    25
100
AcDbPolyline
 90
        3
 70
   128
 43
0.0
 10
155.901955939
 20
192.8245925148
 10
155.9008210402
 20
192.8234811035
 10
155.4165378289
 20
192.4883037953
  0
LINE
  5
D0
330
1F
100
AcDbEntity
  8
0
  6
SLD-Сплошная
 62
     7
370
    25
100
AcDbLine
 10
153.8769558704
 20
195.8243424197
 30
0.0
 11
154.676955873
 21
195.8243424197
 31
0.0
  0
LWPOLYLINE
  5
D1
330
1F
100
AcDbEntity
  8
0
  6
SLD-Сплошная
 62
     7
370
    25
100
AcDbPolyline
 90
        3
 70
   128
 43
0.0
 10
153.8769558703
 20
192.3243424221
 10
153.2072598637
 20
192.4575532401
 10
152.6519557746
 20
192.8245925411
  0
LWPOLYLINE
  5
D2
330
1F
100
AcDbEntity
  8
0
  6
SLD-Сплошная
 62
     7
370
    25
100
AcDbPolyline
 90
        3
 70
   128
 43
0.0
 10
152.6519558851
 20
195.3240924111
 10
153.2072598637
 20
195.6911316038
 10
153.8769558704
 20
195.8243424197
  0
LINE
  5
D3
330
1F
100
AcDbEntity
  8
0
  6
SLD-Сплошная
 62
     7
370
    25
100
AcDbLine
 10
154.6769558729
 20
192.3243424221
 30
0.0
 11
153.8769558703
 21
192.3243424221
 31
0.0
  0
LINE
  5
D4
330
1F
100
AcDbEntity
  8
0
  6
SLD-Сплошная
 62
     7
370
    25
100
AcDbLine
 10
123.4022195175
 20
152.1467901589
 30
0.0
 11
123.4190648941
 21
152.1652388341
 31
0.0
  0
LINE
  5
D5
330
1F
100
AcDbEntity
  8
0
  6
SLD-Сплошная
 62
     7
370
    25
100
AcDbLine
 10
123.4218176568
 20
150.1106797228
 30
0.0
 11
123.4023326849
 21
150.1319604834
 31
0.0
  0
LINE
  5
D6
330
1F
100
AcDbEntity
  8
0
  6
SLD-Сплошная
 62
     7
370
    25
100
AcDbLine
 10
140.8324630179
 20
150.0925059967
 30
0.0
 11
140.8324630179
 21
152.18630203
 31
0.0
  0
LINE
  5
D7
330
1F
100
AcDbEntity
  8
0
  6
SLD-Сплошная
 62
     7
370
    25
100
AcDbLine
 10
140.8324630179
 20
149.859252715
 30
0.0
 11
140.8324630179
 21
150.0925059967
 31
0.0
  0
LINE
  5
D8
330
1F
100
AcDbEntity
  8
0
  6
SLD-Сплошная
 62
     7
370
    25
100
AcDbLine
 10
140.8324630179
 20
152.18630203
 30
0.0
 11
140.8324630179
 21
152.4196945928
 31
0.0
  0
LINE
  5
D9
330
1F
100
AcDbEntity
  8
0
  6
SLD-Сплошная
 62
     7
370
    25
100
AcDbLine
 10
139.4935309954
 20
152.5716324813
 30
0.0
 11
140.8324630179
 21
152.5716324813
 31
0.0
  0
ARC
  5
DA
330
1F
100
AcDbEntity
  8
0
  6
SLD-Сплошная
 62
     7
370
    25
100
AcDbCircle
 10
138.8239651948
 20
162.0697132334
 30
0.0
 40
15.00072879666149
100
AcDbArc
 50
217.3402918226
 51
217.890765512
  0
LINE
  5
DB
330
1F
100
AcDbEntity
  8
0
  6
SLD-Сплошная
 62
     7
370
    25
100
AcDbLine
 10
138.493530995
 20
152.8568954318
 30
0.0
 11
126.9856438364
 21
152.8568954318
 31
0.0
  0
SPLINE
  5
DC
330
1F
100
AcDbEntity
  8
0
  6
SLD-Сплошная
 62
     7
370
    25
100
AcDbSpline
210
0.0
220
0.0
230
1.0
 70
     8
 71
     3
 72
    11
 73
     7
 74
     0
 42
0.00000001
 43
0.00000001
 40
-0.0891572405679591
 40
-0.0891572405679591
 40
-0.0891572405679591
 40
-0.0891572405679591
 40
0.0
 40
0.0
 40
0.0
 40
1.0
 40
1.0
 40
1.0
 40
1.0
 10
138.4935267680664
 20
152.8568951399075
 30
0.0
 10
138.5207993389766
 20
152.8491104176489
 30
0.0
 10
138.5480719098868
 20
152.8413256953904
 30
0.0
 10
138.575344480797
 20
152.8335409731318
 30
0.0
 10
138.8812374260752
 20
152.7462264464711
 30
0.0
 10
139.187306623619
 20
152.6589241014617
 30
0.0
 10
139.4935309954456
 20
152.5716324813095
 30
0.0
  0
LINE
  5
DD
330
1F
100
AcDbEntity
  8
0
  6
SLD-Сплошная
 62
     7
370
    25
100
AcDbLine
 10
140.8324630179
 20
152.4196945928
 30
0.0
 11
140.8324630179
 21
152.5716324813
 31
0.0
  0
ARC
  5
DE
330
1F
100
AcDbEntity
  8
0
  6
SLD-Сплошная
 62
     7
370
    25
100
AcDbCircle
 10
138.824247313
 20
140.2090655006
 30
0.0
 40
15.00107597510019
100
AcDbArc
 50
142.1092850539
 51
142.6584717582
  0
LINE
  5
DF
330
1F
100
AcDbEntity
  8
0
  6
SLD-Сплошная
 62
     7
370
    25
100
AcDbLine
 10
139.4935309954
 20
149.7073494776
 30
0.0
 11
140.8324630179
 21
149.7073494776
 31
0.0
  0
SPLINE
  5
E0
330
1F
100
AcDbEntity
  8
0
  6
SLD-Сплошная
 62
     7
370
    25
100
AcDbSpline
210
0.0
220
0.0
230
1.0
 70
     8
 71
     3
 72
    11
 73
     7
 74
     0
 42
0.00000001
 43
0.00000001
 40
0.0
 40
0.0
 40
0.0
 40
0.0
 40
1.0
 40
1.0
 40
1.0
 40
1.08915619713255
 40
1.08915619713255
 40
1.08915619713255
 40
1.08915619713255
 10
139.4935309954469
 20
149.7073494775963
 30
0.0
 10
139.1873063061334
 20
149.6200576354729
 30
0.0
 10
138.8812368125455
 20
149.5327550688998
 30
0.0
 10
138.5753435955784
 20
149.4454403211214
 30
0.0
 10
138.548071319625
 20
149.4376556702559
 30
0.0
 10
138.5207990436715
 20
149.4298710193904
 30
0.0
 10
138.4935267677181
 20
149.4220863685249
 30
0.0
  0
LINE
  5
E1
330
1F
100
AcDbEntity
  8
0
  6
SLD-Сплошная
 62
     7
370
    25
100
AcDbLine
 10
126.9856438364
 20
149.4220860766
 30
0.0
 11
138.493530995
 21
149.4220860766
 31
0.0
  0
LINE
  5
E2
330
1F
100
AcDbEntity
  8
0
  6
SLD-Сплошная
 62
     7
370
    25
100
AcDbLine
 10
140.8324630179
 20
149.7073494776
 30
0.0
 11
140.8324630179
 21
149.859252715
 31
0.0
  0
LINE
  5
E3
330
1F
100
AcDbEntity
  8
0
  6
SLD-Сплошная
 62
     7
370
    25
100
AcDbLine
 10
139.4935309954
 20
152.5716324813
 30
0.0
 11
139.4935309982
 21
176.5092509094
 31
0.0
  0
LINE
  5
E4
330
1F
100
AcDbEntity
  8
0
  6
SLD-Сплошная
 62
     7
370
    25
100
AcDbLine
 10
139.4935309982
 20
176.5092509094
 30
0.0
 11
127.2130955775
 21
176.5092509094
 31
0.0
  0
LINE
  5
E5
330
1F
100
AcDbEntity
  8
0
  6
SLD-Сплошная
 62
     7
370
    25
100
AcDbLine
 10
127.2130955775
 20
178.0706992992
 30
0.0
 11
127.2130955775
 21
176.5092509094
 31
0.0
  0
LINE
  5
E6
330
1F
100
AcDbEntity
  8
0
  6
SLD-Сплошная
 62
     7
370
    25
100
AcDbLine
 10
139.4935309982
 20
178.0706992992
 30
0.0
 11
127.2130955775
 21
178.0706992992
 31
0.0
  0
LINE
  5
E7
330
1F
100
AcDbEntity
  8
0
  6
SLD-Сплошная
 62
     7
370
    25
100
AcDbLine
 10
139.4935309982
 20
178.0706992992
 30
0.0
 11
139.4935309982
 21
193.1535345961
 31
0.0
  0
LINE
  5
E8
330
1F
100
AcDbEntity
  8
0
  6
SLD-Сплошная
 62
     7
370
    25
100
AcDbLine
 10
139.4935309982
 20
193.1535345961
 30
0.0
 11
127.2130955775
 21
193.1535345961
 31
0.0
  0
LINE
  5
E9
330
1F
100
AcDbEntity
  8
0
  6
SLD-Сплошная
 62
     7
370
    25
100
AcDbLine
 10
127.2130955775
 20
193.7499548093
 30
0.0
 11
127.2130955775
 21
193.1535345961
 31
0.0
  0
LINE
  5
EA
330
1F
100
AcDbEntity
  8
0
  6
SLD-Сплошная
 62
     7
370
    25
100
AcDbLine
 10
139.4935309982
 20
193.7499548093
 30
0.0
 11
127.2130955775
 21
193.7499548093
 31
0.0
  0
LINE
  5
EB
330
1F
100
AcDbEntity
  8
0
  6
SLD-Сплошная
 62
     7
370
    25
100
AcDbLine
 10
139.4935309982
 20
193.7499548093
 30
0.0
 11
139.4935309981
 21
195.6396825757
 31
0.0
  0
LINE
  5
EC
330
1F
100
AcDbEntity
  8
0
  6
SLD-Сплошная
 62
     7
370
    25
100
AcDbLine
 10
139.4935309981
 20
106.6396825757
 30
0.0
 11
139.4935309982
 21
108.529410342
 31
0.0
  0
LINE
  5
ED
330
1F
100
AcDbEntity
  8
0
  6
SLD-Сплошная
 62
     7
370
    25
100
AcDbLine
 10
139.4935309982
 20
108.529410342
 30
0.0
 11
127.2130955775
 21
108.529410342
 31
0.0
  0
LINE
  5
EE
330
1F
100
AcDbEntity
  8
0
  6
SLD-Сплошная
 62
     7
370
    25
100
AcDbLine
 10
127.2130955775
 20
109.1258305553
 30
0.0
 11
127.2130955775
 21
108.529410342
 31
0.0
  0
LINE
  5
EF
330
1F
100
AcDbEntity
  8
0
  6
SLD-Сплошная
 62
     7
370
    25
100
AcDbLine
 10
139.4935309982
 20
109.1258305553
 30
0.0
 11
127.2130955775
 21
109.1258305553
 31
0.0
  0
LINE
  5
F0
330
1F
100
AcDbEntity
  8
0
  6
SLD-Сплошная
 62
     7
370
    25
100
AcDbLine
 10
139.4935309982
 20
109.1258305553
 30
0.0
 11
139.4935309982
 21
124.2086658522
 31
0.0
  0
LINE
  5
F1
330
1F
100
AcDbEntity
  8
0
  6
SLD-Сплошная
 62
     7
370
    25
100
AcDbLine
 10
139.4935309982
 20
124.2086658522
 30
0.0
 11
127.2130955775
 21
124.2086658522
 31
0.0
  0
LINE
  5
F2
330
1F
100
AcDbEntity
  8
0
  6
SLD-Сплошная
 62
     7
370
    25
100
AcDbLine
 10
127.2130955775
 20
125.770114242
 30
0.0
 11
127.2130955775
 21
124.2086658522
 31
0.0
  0
LINE
  5
F3
330
1F
100
AcDbEntity
  8
0
  6
SLD-Сплошная
 62
     7
370
    25
100
AcDbLine
 10
139.4935309982
 20
125.770114242
 30
0.0
 11
127.2130955775
 21
125.770114242
 31
0.0
  0
LINE
  5
F4
330
1F
100
AcDbEntity
  8
0
  6
SLD-Сплошная
 62
     7
370
    25
100
AcDbLine
 10
139.4935309982
 20
125.770114242
 30
0.0
 11
139.4935309954
 21
149.7073494776
 31
0.0
  0
LINE
  5
F5
330
1F
100
AcDbEntity
  8
0
  6
SLD-Сплошная
 62
     7
370
    25
100
AcDbLine
 10
144.8324630179
 20
151.1396825757
 30
0.0
 11
144.8324630179
 21
195.6396825757
 31
0.0
  0
LINE
  5
F6
330
1F
100
AcDbEntity
  8
0
  6
SLD-Сплошная
 62
     7
370
    25
100
AcDbLine
 10
144.8324630179
 20
106.6396825757
 30
0.0
 11
144.8324630179
 21
151.1396825757
 31
0.0
  0
LINE
  5
F7
330
1F
100
AcDbEntity
  8
0
  6
SLD-Сплошная
 62
     7
370
    25
100
AcDbLine
 10
138.493530995
 20
174.9017692472
 30
0.0
 11
138.493530995
 21
152.8568954318
 31
0.0
  0
SPLINE
  5
F8
330
1F
100
AcDbEntity
  8
0
  6
SLD-Сплошная
 62
     7
370
    25
100
AcDbSpline
210
0.0
220
0.0
230
1.0
 70
     8
 71
     3
 72
     8
 73
     4
 74
     0
 42
0.00000001
 43
0.00000001
 40
0.0
 40
0.0
 40
0.0
 40
0.0
 40
1.0
 40
1.0
 40
1.0
 40
1.0
 10
138.671612588837
 20
175.1884933591789
 30
0.0
 10
138.612234338886
 20
175.0929248346012
 30
0.0
 10
138.5528736568122
 20
174.9973501831922
 30
0.0
 10
138.4935309950433
 20
174.9017692471716
 30
0.0
  0
SPLINE
  5
F9
330
1F
100
AcDbEntity
  8
0
  6
SLD-Сплошная
 62
     7
370
    25
100
AcDbSpline
210
0.0
220
0.0
230
1.0
 70
     8
 71
     3
 72
    11
 73
     7
 74
     0
 42
0.00000001
 43
0.00000001
 40
0.0
 40
0.0
 40
0.0
 40
0.0
 40
1.0
 40
1.0
 40
1.0
 40
1.097249905496973
 40
1.097249905496973
 40
1.097249905496973
 40
1.097249905496973
 10
138.6716125886933
 20
175.1884933592035
 30
0.0
 10
138.9209796941906
 20
175.5898464884329
 30
0.0
 10
139.170652589814
 20
175.9910856956889
 30
0.0
 10
139.4206008581064
 20
176.3922223129936
 30
0.0
 10
139.444908303577
 20
176.4312328111179
 30
0.0
 10
139.4692157490475
 20
176.4702433092421
 30
0.0
 10
139.4935231945182
 20
176.5092538073664
 30
0.0
  0
SPLINE
  5
FA
330
1F
100
AcDbEntity
  8
0
  6
SLD-Сплошная
 62
     7
370
    25
100
AcDbSpline
210
0.0
220
0.0
230
1.0
 70
     8
 71
     3
 72
    11
 73
     7
 74
     0
 42
0.00000001
 43
0.00000001
 40
-0.0972500810765871
 40
-0.0972500810765871
 40
-0.0972500810765871
 40
-0.0972500810765871
 40
0.0
 40
0.0
 40
0.0
 40
1.0
 40
1.0
 40
1.0
 40
1.0
 10
139.4935231945188
 20
125.7701113439817
 30
0.0
 10
139.4692157490479
 20
125.8091218421058
 30
0.0
 10
139.4449083035769
 20
125.8481323402299
 30
0.0
 10
139.4206008581059
 20
125.887142838354
 30
0.0
 10
139.1706530410769
 20
126.288278731427
 30
0.0
 10
138.9209801603976
 20
126.6895179125615
 30
0.0
 10
138.671612588691
 20
127.0908717921453
 30
0.0
  0
SPLINE
  5
FB
330
1F
100
AcDbEntity
  8
0
  6
SLD-Сплошная
 62
     7
370
    25
100
AcDbSpline
210
0.0
220
0.0
230
1.0
 70
     8
 71
     3
 72
     8
 73
     4
 74
     0
 42
0.00000001
 43
0.00000001
 40
0.0
 40
0.0
 40
0.0
 40
0.0
 40
1.0
 40
1.0
 40
1.0
 40
1.0
 10
138.6716125888216
 20
127.0908717921922
 30
0.0
 10
138.6122343388758
 20
127.1864403167615
 30
0.0
 10
138.5528736568073
 20
127.2820149681619
 30
0.0
 10
138.4935309950436
 20
127.3775959041741
 30
0.0
  0
LINE
  5
FC
330
1F
100
AcDbEntity
  8
0
  6
SLD-Сплошная
 62
     7
370
    25
100
AcDbLine
 10
138.493530995
 20
149.4220860766
 30
0.0
 11
138.493530995
 21
127.3775959042
 31
0.0
  0
LINE
  5
FD
330
1F
100
AcDbEntity
  8
0
  6
SLD-Сплошная
 62
     7
370
    25
100
AcDbLine
 10
138.493530995
 20
127.3775959042
 30
0.0
 11
126.9856438364
 21
127.3775959042
 31
0.0
  0
LINE
  5
FE
330
1F
100
AcDbEntity
  8
0
  6
SLD-Сплошная
 62
     7
370
    25
100
AcDbLine
 10
126.9856438364
 20
127.3775959042
 30
0.0
 11
126.9856438364
 21
149.4220860766
 31
0.0
  0
LINE
  5
FF
330
1F
100
AcDbEntity
  8
0
  6
SLD-Сплошная
 62
     7
370
    25
100
AcDbLine
 10
126.9856438364
 20
152.8568954318
 30
0.0
 11
126.9856438364
 21
174.9017692472
 31
0.0
  0
LINE
  5
100
330
1F
100
AcDbEntity
  8
0
  6
SLD-Сплошная
 62
     7
370
    25
100
AcDbLine
 10
138.493530995
 20
174.9017692472
 30
0.0
 11
126.9856438364
 21
174.9017692472
 31
0.0
  0
ARC
  5
101
330
1F
100
AcDbEntity
  8
0
  6
SLD-Сплошная
 62
     7
370
    25
100
AcDbCircle
 10
400.2705117739
 20
157.477734929
 30
0.0
 40
275.4560336512329
100
AcDbArc
 50
172.4332805751
 51
172.8014728585
  0
ARC
  5
102
330
1F
100
AcDbEntity
  8
0
  6
SLD-Сплошная
 62
     7
370
    25
100
AcDbCircle
 10
508.2168591434
 20
150.4064823856
 30
0.0
 40
383.3942857216975
100
AcDbArc
 50
173.5984209152
 51
173.9108799063
  0
LINE
  5
103
330
1F
100
AcDbEntity
  8
0
  6
SLD-Сплошная
 62
     7
370
    25
100
AcDbLine
 10
126.9856438364
 20
177.3087280124
 30
0.0
 11
126.9856438364
 21
191.0751287802
 31
0.0
  0
ARC
  5
104
330
1F
100
AcDbEntity
  8
0
  6
SLD-Сплошная
 62
     7
370
    25
100
AcDbCircle
 10
182.2271959894
 20
161.2338178875
 30
0.0
 40
57.53287599102097
100
AcDbArc
 50
162.9834450576
 51
163.775368969
  0
ARC
  5
105
330
1F
100
AcDbEntity
  8
0
  6
SLD-Сплошная
 62
     7
370
    25
100
AcDbCircle
 10
356.8880549649
 20
143.1913994728
 30
0.0
 40
232.0790085163632
100
AcDbArc
 50
171.7459522087
 51
172.1467619318
  0
LINE
  5
106
330
1F
100
AcDbEntity
  8
0
  6
SLD-Сплошная
 62
     7
370
    25
100
AcDbLine
 10
126.8976786967
 20
152.9710564756
 30
0.0
 11
126.8900498707
 21
152.9737662951
 31
0.0
  0
SPLINE
  5
107
330
1F
100
AcDbEntity
  8
0
  6
SLD-Сплошная
 62
     7
370
    25
100
AcDbSpline
210
0.0
220
0.0
230
1.0
 70
     8
 71
     3
 72
    10
 73
     6
 74
     0
 42
0.00000001
 43
0.00000001
 40
0.0
 40
0.0
 40
0.0
 40
0.0
 40
0.0159200598835353
 40
0.5373978284713434
 40
1.0
 40
1.0
 40
1.0
 40
1.0
 10
126.7436154476825
 20
153.0898657158381
 30
0.0
 10
126.7439522229818
 20
153.0891837542832
 30
0.0
 10
126.7553204160581
 20
153.0661634477403
 30
0.0
 10
126.7764855485139
 20
153.0204868372472
 30
0.0
 10
126.7978905555608
 20
152.9902316079891
 30
0.0
 10
126.8079527490248
 20
152.9760090492473
 30
0.0
  0
LINE
  5
108
330
1F
100
AcDbEntity
  8
0
  6
SLD-Сплошная
 62
     7
370
    25
100
AcDbLine
 10
125.5981271636
 20
152.9760090492
 30
0.0
 11
125.5981271636
 21
178.3896825757
 31
0.0
  0
LINE
  5
109
330
1F
100
AcDbEntity
  8
0
  6
SLD-Сплошная
 62
     7
370
    25
100
AcDbLine
 10
126.9856438364
 20
191.994505219
 30
0.0
 11
126.9856438364
 21
193.6396825757
 31
0.0
  0
LINE
  5
10A
330
1F
100
AcDbEntity
  8
0
  6
SLD-Сплошная
 62
     7
370
    25
100
AcDbLine
 10
125.5981271636
 20
123.8896825757
 30
0.0
 11
125.5981271636
 21
149.3032376332
 31
0.0
  0
SPLINE
  5
10B
330
1F
100
AcDbEntity
  8
0
  6
SLD-Сплошная
 62
     7
370
    25
100
AcDbSpline
210
0.0
220
0.0
230
1.0
 70
     8
 71
     3
 72
    10
 73
     6
 74
     0
 42
0.00000001
 43
0.00000001
 40
0.0
 40
0.0
 40
0.0
 40
0.0
 40
0.4619585779614038
 40
0.9840602083262782
 40
1.0
 40
1.0
 40
1.0
 40
1.0
 10
126.8078752288354
 20
149.3032376332344
 30
0.0
 10
126.7978390756482
 20
149.289050370905
 30
0.0
 10
126.77646014804
 20
149.2588287861364
 30
0.0
 10
126.7553205025101
 20
149.2132004953704
 30
0.0
 10
126.7439522391346
 20
149.1901813899612
 30
0.0
 10
126.7436154476861
 20
149.1894994355062
 30
0.0
  0
LINE
  5
10C
330
1F
100
AcDbEntity
  8
0
  6
SLD-Сплошная
 62
     7
370
    25
100
AcDbLine
 10
126.8902519745
 20
149.3054803874
 30
0.0
 11
126.8978811443
 21
149.3081902068
 31
0.0
  0
ARC
  5
10D
330
1F
100
AcDbEntity
  8
0
  6
SLD-Сплошная
 62
     7
370
    25
100
AcDbCircle
 10
356.8880549598
 20
159.0879656778
 30
0.0
 40
232.0790085111794
100
AcDbArc
 50
187.8532380682
 51
188.2540477913
  0
ARC
  5
10E
330
1F
100
AcDbEntity
  8
0
  6
SLD-Сплошная
 62
     7
370
    25
100
AcDbCircle
 10
182.227195991
 20
141.0455472643
 30
0.0
 40
57.53287599267341
100
AcDbArc
 50
196.224631031
 51
197.0165549424
  0
LINE
  5
10F
330
1F
100
AcDbEntity
  8
0
  6
SLD-Сплошная
 62
     7
370
    25
100
AcDbLine
 10
126.9856438364
 20
111.2042363712
 30
0.0
 11
126.9856438364
 21
124.970637139
 31
0.0
  0
ARC
  5
110
330
1F
100
AcDbEntity
  8
0
  6
SLD-Сплошная
 62
     7
370
    25
100
AcDbCircle
 10
508.2168591175
 20
151.8728827629
 30
0.0
 40
383.3942856956581
100
AcDbArc
 50
186.0891200937
 51
186.4015790848
  0
ARC
  5
111
330
1F
100
AcDbEntity
  8
0
  6
SLD-Сплошная
 62
     7
370
    25
100
AcDbCircle
 10
400.2705118081
 20
144.8016302269
 30
0.0
 40
275.4560336857783
100
AcDbArc
 50
187.1985271415
 51
187.5667194249
  0
LINE
  5
112
330
1F
100
AcDbEntity
  8
0
  6
SLD-Сплошная
 62
     7
370
    25
100
AcDbLine
 10
126.9856438364
 20
108.6396825757
 30
0.0
 11
126.9856438364
 21
110.2848599324
 31
0.0
  0
SPLINE
  5
113
330
1F
100
AcDbEntity
  8
0
  6
SLD-Сплошная
 62
     7
370
    25
100
AcDbSpline
210
0.0
220
0.0
230
1.0
 70
     8
 71
     3
 72
    11
 73
     7
 74
     0
 42
0.00000001
 43
0.00000001
 40
-0.0972500810766142
 40
-0.0972500810766142
 40
-0.0972500810766142
 40
-0.0972500810766142
 40
0.0
 40
0.0
 40
0.0
 40
1.0
 40
1.0
 40
1.0
 40
1.0
 10
139.4935231945192
 20
109.1258268082624
 30
0.0
 10
139.4692157490482
 20
109.1762657327549
 30
0.0
 10
139.4449083035772
 20
109.2267046572475
 30
0.0
 10
139.4206008581062
 20
109.27714358174
 30
0.0
 10
139.1706530410772
 20
109.7957953292156
 30
0.0
 10
138.9209801603978
 20
110.3145806237836
 30
0.0
 10
138.6716125886912
 20
110.8335142185964
 30
0.0
  0
SPLINE
  5
114
330
1F
100
AcDbEntity
  8
0
  6
SLD-Сплошная
 62
     7
370
    25
100
AcDbSpline
210
0.0
220
0.0
230
1.0
 70
     8
 71
     3
 72
     8
 73
     4
 74
     0
 42
0.00000001
 43
0.00000001
 40
0.0
 40
0.0
 40
0.0
 40
0.0
 40
1.0
 40
1.0
 40
1.0
 40
1.0
 10
138.6716125888218
 20
110.8335142186589
 30
0.0
 10
138.612234338876
 20
110.9570802797551
 30
0.0
 10
138.5528736568075
 20
111.0806542625848
 30
0.0
 10
138.4935309950439
 20
111.2042363711519
 30
0.0
  0
LINE
  5
115
330
1F
100
AcDbEntity
  8
0
  6
SLD-Сплошная
 62
     7
370
    25
100
AcDbLine
 10
138.4935309954
 20
124.2086658522
 30
0.0
 11
138.493530995
 21
111.2042363712
 31
0.0
  0
SPLINE
  5
116
330
1F
100
AcDbEntity
  8
0
  6
SLD-Сплошная
 62
     7
370
    25
100
AcDbSpline
210
0.0
220
0.0
230
1.0
 70
     8
 71
     3
 72
     8
 73
     4
 74
     0
 42
0.00000001
 43
0.00000001
 40
0.0
 40
0.0
 40
0.0
 40
0.0
 40
1.0
 40
1.0
 40
1.0
 40
1.0
 10
138.671612588837
 20
191.4458509327183
 30
0.0
 10
138.612234338886
 20
191.3222848716112
 30
0.0
 10
138.5528736568122
 20
191.1987108887704
 30
0.0
 10
138.4935309950433
 20
191.0751287801924
 30
0.0
  0
SPLINE
  5
117
330
1F
100
AcDbEntity
  8
0
  6
SLD-Сплошная
 62
     7
370
    25
100
AcDbSpline
210
0.0
220
0.0
230
1.0
 70
     8
 71
     3
 72
    11
 73
     7
 74
     0
 42
0.00000001
 43
0.00000001
 40
0.0
 40
0.0
 40
0.0
 40
0.0
 40
1.0
 40
1.0
 40
1.0
 40
1.097249905497009
 40
1.097249905497009
 40
1.097249905497009
 40
1.097249905497009
 10
138.6716125886933
 20
191.4458509327502
 30
0.0
 10
138.9209796941906
 20
191.964783557386
 30
0.0
 10
139.170652589814
 20
192.4835688857331
 30
0.0
 10
139.4206008581065
 20
193.0022215696052
 30
0.0
 10
139.444908303577
 20
193.0526604940976
 30
0.0
 10
139.4692157490477
 20
193.1030994185899
 30
0.0
 10
139.4935231945182
 20
193.1535383430822
 30
0.0
  0
LINE
  5
118
330
1F
100
AcDbEntity
  8
0
  6
SLD-Сплошная
 62
     7
370
    25
100
AcDbLine
 10
138.493530995
 20
191.0751287802
 30
0.0
 11
138.4935309954
 21
178.0706992992
 31
0.0
  0
LINE
  5
119
330
1F
100
AcDbEntity
  8
0
  6
SLD-Сплошная
 62
     7
370
    25
100
AcDbLine
 10
138.493530995
 20
111.2042363712
 30
0.0
 11
126.9856438364
 21
111.2042363712
 31
0.0
  0
LINE
  5
11A
330
1F
100
AcDbEntity
  8
0
  6
SLD-Сплошная
 62
     7
370
    25
100
AcDbLine
 10
138.493530995
 20
191.0751287802
 30
0.0
 11
126.9856438364
 21
191.0751287802
 31
0.0
  0
LINE
  5
11B
330
1F
100
AcDbEntity
  8
0
  6
SLD-Сплошная
 62
     7
370
    25
100
AcDbLine
 10
123.7769558702
 20
123.8896825757
 30
0.0
 11
125.5981271636
 21
123.8896825757
 31
0.0
  0
LINE
  5
11C
330
1F
100
AcDbEntity
  8
0
  6
SLD-Сплошная
 62
     7
370
    25
100
AcDbLine
 10
123.7769558702
 20
123.8896825757
 30
0.0
 11
123.7769558702
 21
149.6778018097
 31
0.0
  0
LINE
  5
11D
330
1F
100
AcDbEntity
  8
0
  6
SLD-Сплошная
 62
     7
370
    25
100
AcDbLine
 10
123.7769558702
 20
152.5975124988
 30
0.0
 11
123.7769558702
 21
178.3896825757
 31
0.0
  0
LINE
  5
11E
330
1F
100
AcDbEntity
  8
0
  6
SLD-Сплошная
 62
     7
370
    25
100
AcDbLine
 10
123.7769558702
 20
178.3896825757
 30
0.0
 11
125.5981271636
 21
178.3896825757
 31
0.0
  0
ARC
  5
11F
330
1F
100
AcDbEntity
  8
0
  6
SLD-Сплошная
 62
     7
370
    25
100
AcDbCircle
 10
246.0373725369
 20
151.1396825757
 30
0.0
 40
125.2604166666652
100
AcDbArc
 50
180.0
 51
192.5649841763
  0
ARC
  5
120
330
1F
100
AcDbEntity
  8
0
  6
SLD-Сплошная
 62
     7
370
    25
100
AcDbCircle
 10
246.0373725369
 20
151.1396825757
 30
0.0
 40
125.2604166666648
100
AcDbArc
 50
167.4350158237
 51
180.0
  0
LINE
  5
121
330
1F
100
AcDbEntity
  8
0
  6
SLD-Сплошная
 62
     7
370
    25
100
AcDbLine
 10
145.1781713991
 20
187.70965975
 30
0.0
 11
144.8324630179
 21
187.7064738701
 31
0.0
  0
LINE
  5
122
330
1F
100
AcDbEntity
  8
0
  6
SLD-Сплошная
 62
     7
370
    25
100
AcDbLine
 10
148.4791128449
 20
194.6815228967
 30
0.0
 11
145.1781713991
 21
187.70965975
 31
0.0
  0
ARC
  5
123
330
1F
100
AcDbEntity
  8
0
  6
SLD-Сплошная
 62
     7
370
    25
100
AcDbCircle
 10
154.2769558702
 20
194.0743424035
 30
0.0
 40
5.500000000000005
100
AcDbArc
 50
21.9764163728
 51
141.3658541811
  0
ARC
  5
124
330
1F
100
AcDbEntity
  8
0
  6
SLD-Сплошная
 62
     7
370
    25
100
AcDbCircle
 10
154.2769558702
 20
194.0743424035
 30
0.0
 40
2.049999999999976
100
AcDbArc
 50
205.0
 51
25.0
  0
ARC
  5
125
330
1F
100
AcDbEntity
  8
0
  6
SLD-Сплошная
 62
     7
370
    25
100
AcDbCircle
 10
154.2769558702
 20
194.0743424035
 30
0.0
 40
2.049999999999976
100
AcDbArc
 50
25.0
 51
205.0
  0
LINE
  5
126
330
1F
100
AcDbEntity
  8
0
  6
SLD-Сплошная
 62
     7
370
    25
100
AcDbLine
 10
148.3769558703
 20
184.7185834661
 30
0.0
 11
144.8324630179
 21
182.833943186
 31
0.0
  0
ARC
  5
127
330
1F
100
AcDbEntity
  8
0
  6
SLD-Сплошная
 62
     7
370
    25
100
AcDbCircle
 10
57.0743802008
 20
151.1393424217
 30
0.0
 40
24.29519689097617
100
AcDbArc
 50
270.0
 51
0.0000000005
  0
ARC
  5
128
330
1F
100
AcDbEntity
  8
0
  6
SLD-Сплошная
 62
     7
370
    25
100
AcDbCircle
 10
57.0743802008
 20
151.1393424217
 30
0.0
 40
24.29519689097617
100
AcDbArc
 50
180.0000000008
 51
270.0
  0
ARC
  5
129
330
1F
100
AcDbEntity
  8
0
  6
SLD-Сплошная
 62
     7
370
    25
100
AcDbCircle
 10
57.0743802008
 20
151.1393424221
 30
0.0
 40
24.29519689097658
100
AcDbArc
 50
359.9999999879
 51
180.0000000005
  0
LINE
  5
12A
330
1F
100
AcDbEntity
  8
0
  6
SLD-Сплошная
 62
     7
370
    25
100
AcDbLine
 10
55.3243802139
 20
143.3010237413
 30
0.0
 11
55.3243802139
 21
142.856654157
 31
0.0
  0
LINE
  5
12B
330
1F
100
AcDbEntity
  8
0
  6
SLD-Сплошная
 62
     7
370
    25
100
AcDbLine
 10
58.8243802139
 20
142.8566541602
 30
0.0
 11
58.8243802139
 21
143.3010237413
 31
0.0
  0
LINE
  5
12C
330
1F
100
AcDbEntity
  8
0
  6
SLD-Сплошная
 62
     7
370
    25
100
AcDbLine
 10
39.0733682377
 20
199.1263969919
 30
0.0
 11
38.5743868026
 21
199.1263969919
 31
0.0
  0
LINE
  5
12D
330
1F
100
AcDbEntity
  8
0
  6
SLD-Сплошная
 62
     7
370
    25
100
AcDbLine
 10
69.8743802133
 20
199.5743424035
 30
0.0
 11
44.2743802139
 21
199.5743424035
 31
0.0
  0
ARC
  5
12E
330
1F
100
AcDbEntity
  8
0
  6
SLD-Сплошная
 62
     7
370
    25
100
AcDbCircle
 10
56.9750267505
 20
151.1004999079
 30
0.0
 40
12.15000000000003
100
AcDbArc
 50
329.4698138521
 51
149.4698138521
  0
ARC
  5
12F
330
1F
100
AcDbEntity
  8
0
  6
SLD-Сплошная
 62
     7
370
    25
100
AcDbCircle
 10
56.9750267505
 20
151.1004999079
 30
0.0
 40
12.15000000000003
100
AcDbArc
 50
149.4698138521
 51
329.4698138521
  0
LINE
  5
130
330
1F
100
AcDbEntity
  8
0
  6
SLD-Сплошная
 62
     7
370
    25
100
AcDbLine
 10
38.8531079049
 20
142.0088247402
 30
0.0
 11
39.8370377987
 21
140.2675947255
 31
0.0
  0
LINE
  5
131
330
1F
100
AcDbEntity
  8
0
  6
SLD-Сплошная
 62
     7
370
    25
100
AcDbLine
 10
39.5719955692
 20
142.4150519803
 30
0.0
 11
38.8531079049
 21
142.0088247402
 31
0.0
  0
ARC
  5
132
330
1F
100
AcDbEntity
  8
0
  6
SLD-Сплошная
 62
     7
370
    25
100
AcDbCircle
 10
56.9750267505
 20
151.1004999079
 30
0.0
 40
19.45
100
AcDbArc
 50
152.4169116452
 51
206.522716059
  0
LINE
  5
133
330
1F
100
AcDbEntity
  8
0
  6
SLD-Сплошная
 62
     7
370
    25
100
AcDbLine
 10
39.0244611899
 20
160.5259811187
 30
0.0
 11
39.7357081317
 21
160.106519759
 31
0.0
  0
LINE
  5
134
330
1F
100
AcDbEntity
  8
0
  6
SLD-Сплошная
 62
     7
370
    25
100
AcDbLine
 10
40.0404456695
 20
162.2487044096
 30
0.0
 11
39.0244611899
 21
160.5259811187
 31
0.0
  0
LINE
  5
135
330
1F
100
AcDbEntity
  8
0
  6
SLD-Сплошная
 62
     7
370
    25
100
AcDbLine
 10
40.0404456695
 20
162.2487044096
 30
0.0
 11
40.7516926113
 21
161.8292430499
 31
0.0
  0
ARC
  5
136
330
1F
100
AcDbEntity
  8
0
  6
SLD-Сплошная
 62
     7
370
    25
100
AcDbCircle
 10
56.9750267505
 20
151.1004999079
 30
0.0
 40
19.44999999999999
100
AcDbArc
 50
92.4169116452
 51
146.522716059
  0
LINE
  5
137
330
1F
100
AcDbEntity
  8
0
  6
SLD-Сплошная
 62
     7
370
    25
100
AcDbLine
 10
56.1548094191
 20
170.5331977012
 30
0.0
 11
56.1624501417
 21
171.358886301
 31
0.0
  0
LINE
  5
138
330
1F
100
AcDbEntity
  8
0
  6
SLD-Сплошная
 62
     7
370
    25
100
AcDbLine
 10
58.1623645151
 20
171.3403795773
 30
0.0
 11
56.1624501417
 21
171.358886301
 31
0.0
  0
LINE
  5
139
330
1F
100
AcDbEntity
  8
0
  6
SLD-Сплошная
 62
     7
370
    25
100
AcDbLine
 10
58.1623645151
 20
171.3403795773
 30
0.0
 11
58.1547237926
 21
170.5146909775
 31
0.0
  0
ARC
  5
13A
330
1F
100
AcDbEntity
  8
0
  6
SLD-Сплошная
 62
     7
370
    25
100
AcDbCircle
 10
56.9750267505
 20
151.1004999079
 30
0.0
 40
19.45000000000003
100
AcDbArc
 50
32.4169116452
 51
86.522716059
  0
LINE
  5
13B
330
1F
100
AcDbEntity
  8
0
  6
SLD-Сплошная
 62
     7
370
    25
100
AcDbLine
 10
74.1130157022
 20
161.9334050902
 30
0.0
 11
73.3941280379
 21
161.5271778501
 31
0.0
  0
LINE
  5
13C
330
1F
100
AcDbEntity
  8
0
  6
SLD-Сплошная
 62
     7
370
    25
100
AcDbLine
 10
75.0969455961
 20
160.1921750755
 30
0.0
 11
74.1130157022
 21
161.9334050902
 31
0.0
  0
LINE
  5
13D
330
1F
100
AcDbEntity
  8
0
  6
SLD-Сплошная
 62
     7
370
    25
100
AcDbLine
 10
75.0969455961
 20
160.1921750755
 30
0.0
 11
74.3780579318
 21
159.7859478355
 31
0.0
  0
ARC
  5
13E
330
1F
100
AcDbEntity
  8
0
  6
SLD-Сплошная
 62
     7
370
    25
100
AcDbCircle
 10
56.9750267505
 20
151.1004999079
 30
0.0
 40
19.45000000000005
100
AcDbArc
 50
332.4169116452
 51
26.522716059
  0
LINE
  5
13F
330
1F
100
AcDbEntity
  8
0
  6
SLD-Сплошная
 62
     7
370
    25
100
AcDbLine
 10
74.9255923111
 20
141.675018697
 30
0.0
 11
74.2143453693
 21
142.0944800567
 31
0.0
  0
LINE
  5
140
330
1F
100
AcDbEntity
  8
0
  6
SLD-Сплошная
 62
     7
370
    25
100
AcDbLine
 10
73.9096078314
 20
139.9522954061
 30
0.0
 11
74.9255923111
 21
141.675018697
 31
0.0
  0
LINE
  5
141
330
1F
100
AcDbEntity
  8
0
  6
SLD-Сплошная
 62
     7
370
    25
100
AcDbLine
 10
73.9096078314
 20
139.9522954061
 30
0.0
 11
73.1983608897
 21
140.3717567658
 31
0.0
  0
ARC
  5
142
330
1F
100
AcDbEntity
  8
0
  6
SLD-Сплошная
 62
     7
370
    25
100
AcDbCircle
 10
56.9750267505
 20
151.1004999079
 30
0.0
 40
19.45000000000001
100
AcDbArc
 50
272.4169116452
 51
326.522716059
  0
LINE
  5
143
330
1F
100
AcDbEntity
  8
0
  6
SLD-Сплошная
 62
     7
370
    25
100
AcDbLine
 10
57.7876033593
 20
130.8421135147
 30
0.0
 11
57.7952440818
 21
131.6678021145
 31
0.0
  0
LINE
  5
144
330
1F
100
AcDbEntity
  8
0
  6
SLD-Сплошная
 62
     7
370
    25
100
AcDbLine
 10
55.7876889859
 20
130.8606202384
 30
0.0
 11
57.7876033593
 21
130.8421135147
 31
0.0
  0
LINE
  5
145
330
1F
100
AcDbEntity
  8
0
  6
SLD-Сплошная
 62
     7
370
    25
100
AcDbLine
 10
55.7876889859
 20
130.8606202384
 30
0.0
 11
55.7953297084
 21
131.6863088382
 31
0.0
  0
ARC
  5
146
330
1F
100
AcDbEntity
  8
0
  6
SLD-Сплошная
 62
     7
370
    25
100
AcDbCircle
 10
56.9750267505
 20
151.1004999079
 30
0.0
 40
19.45000000000001
100
AcDbArc
 50
212.4169116452
 51
266.522716059
  0
LINE
  5
147
330
1F
100
AcDbEntity
  8
0
  6
SLD-Сплошная
 62
     7
370
    25
100
AcDbLine
 10
39.8370377987
 20
140.2675947255
 30
0.0
 11
40.555925463
 21
140.6738219656
 31
0.0
  0
ARC
  5
148
330
1F
100
AcDbEntity
  8
0
  6
SLD-Сплошная
 62
     7
370
    25
100
AcDbCircle
 10
56.9750267505
 20
151.1004999079
 30
0.0
 40
10.05
100
AcDbArc
 50
329.4698138521
 51
149.4698138521
  0
ARC
  5
149
330
1F
100
AcDbEntity
  8
0
  6
SLD-Сплошная
 62
     7
370
    25
100
AcDbCircle
 10
56.9750267505
 20
151.1004999079
 30
0.0
 40
10.05
100
AcDbArc
 50
149.4698138521
 51
329.4698138521
  0
ARC
  5
14A
330
1F
100
AcDbEntity
  8
0
  6
SLD-Сплошная
 62
     7
370
    25
100
AcDbCircle
 10
56.9750267505
 20
151.1004999079
 30
0.0
 40
22.64999999999998
100
AcDbArc
 50
56.0844618904
 51
62.8551658138
  0
LINE
  5
14B
330
1F
100
AcDbEntity
  8
0
  6
SLD-Сплошная
 62
     7
370
    25
100
AcDbLine
 10
74.1130157022
 20
161.9334050902
 30
0.0
 11
69.6130513382
 21
169.8968515358
 31
0.0
  0
LINE
  5
14C
330
1F
100
AcDbEntity
  8
0
  6
SLD-Сплошная
 62
     7
370
    25
100
AcDbLine
 10
58.1623645151
 20
171.3403795773
 30
0.0
 11
67.3088936207
 21
171.2557398099
 31
0.0
  0
ARC
  5
14D
330
1F
100
AcDbEntity
  8
0
  6
SLD-Сплошная
 62
     7
370
    25
100
AcDbCircle
 10
56.9750267505
 20
151.1004999079
 30
0.0
 40
22.65000000000001
100
AcDbArc
 50
116.0844618904
 51
122.8551658138
  0
LINE
  5
14E
330
1F
100
AcDbEntity
  8
0
  6
SLD-Сплошная
 62
     7
370
    25
100
AcDbLine
 10
40.0404456695
 20
162.2487044096
 30
0.0
 11
44.6870104111
 21
170.1275110878
 31
0.0
  0
LINE
  5
14F
330
1F
100
AcDbEntity
  8
0
  6
SLD-Сплошная
 62
     7
370
    25
100
AcDbLine
 10
56.1624501417
 20
171.358886301
 30
0.0
 11
47.0159210361
 21
171.4435260684
 31
0.0
  0
ARC
  5
150
330
1F
100
AcDbEntity
  8
0
  6
SLD-Сплошная
 62
     7
370
    25
100
AcDbCircle
 10
56.9750267505
 20
151.1004999079
 30
0.0
 40
22.65000000000007
100
AcDbArc
 50
356.0844618904
 51
2.8551658138
  0
LINE
  5
151
330
1F
100
AcDbEntity
  8
0
  6
SLD-Сплошная
 62
     7
370
    25
100
AcDbLine
 10
74.9255923111
 20
141.675018697
 30
0.0
 11
79.5721570526
 21
149.5538253752
 31
0.0
  0
LINE
  5
152
330
1F
100
AcDbEntity
  8
0
  6
SLD-Сплошная
 62
     7
370
    25
100
AcDbLine
 10
75.0969455961
 20
160.1921750755
 30
0.0
 11
79.5969099601
 21
152.2287286299
 31
0.0
  0
ARC
  5
153
330
1F
100
AcDbEntity
  8
0
  6
SLD-Сплошная
 62
     7
370
    25
100
AcDbCircle
 10
56.9750267505
 20
151.1004999079
 30
0.0
 40
22.65000000000006
100
AcDbArc
 50
296.0844618904
 51
302.8551658138
  0
LINE
  5
154
330
1F
100
AcDbEntity
  8
0
  6
SLD-Сплошная
 62
     7
370
    25
100
AcDbLine
 10
57.7876033593
 20
130.8421135147
 30
0.0
 11
66.9341324649
 21
130.7574737473
 31
0.0
  0
LINE
  5
155
330
1F
100
AcDbEntity
  8
0
  6
SLD-Сплошная
 62
     7
370
    25
100
AcDbLine
 10
73.9096078314
 20
139.9522954061
 30
0.0
 11
69.2630430899
 21
132.0734887279
 31
0.0
  0
ARC
  5
156
330
1F
100
AcDbEntity
  8
0
  6
SLD-Сплошная
 62
     7
370
    25
100
AcDbCircle
 10
56.9750267505
 20
151.1004999079
 30
0.0
 40
22.64999999999993
100
AcDbArc
 50
176.0844618904
 51
182.8551658138
  0
LINE
  5
157
330
1F
100
AcDbEntity
  8
0
  6
SLD-Сплошная
 62
     7
370
    25
100
AcDbLine
 10
38.8531079049
 20
142.0088247402
 30
0.0
 11
34.3531435408
 21
149.9722711858
 31
0.0
  0
LINE
  5
158
330
1F
100
AcDbEntity
  8
0
  6
SLD-Сплошная
 62
     7
370
    25
100
AcDbLine
 10
39.0244611899
 20
160.5259811187
 30
0.0
 11
34.3778964484
 21
152.6471744405
 31
0.0
  0
ARC
  5
159
330
1F
100
AcDbEntity
  8
0
  6
SLD-Сплошная
 62
     7
370
    25
100
AcDbCircle
 10
56.9750267505
 20
151.1004999079
 30
0.0
 40
22.65000000000008
100
AcDbArc
 50
236.0844618904
 51
242.8551658138
  0
LINE
  5
15A
330
1F
100
AcDbEntity
  8
0
  6
SLD-Сплошная
 62
     7
370
    25
100
AcDbLine
 10
39.8370377987
 20
140.2675947255
 30
0.0
 11
44.3370021628
 21
132.3041482799
 31
0.0
  0
LINE
  5
15B
330
1F
100
AcDbEntity
  8
0
  6
SLD-Сплошная
 62
     7
370
    25
100
AcDbLine
 10
46.6411598803
 20
130.9452600058
 30
0.0
 11
55.7876889859
 21
130.8606202384
 31
0.0
  0
ARC
  5
15C
330
1F
100
AcDbEntity
  8
0
  6
SLD-Сплошная
 62
     7
370
    25
100
AcDbCircle
 10
56.9750267505
 20
151.1004999079
 30
0.0
 40
8.500000000000039
100
AcDbArc
 50
329.4698138521
 51
0.0
  0
ARC
  5
15D
330
1F
100
AcDbEntity
  8
0
  6
SLD-Сплошная
 62
     7
370
    25
100
AcDbCircle
 10
56.9750267505
 20
151.1004999079
 30
0.0
 40
8.500000000000037
100
AcDbArc
 50
0.0
 51
149.4698138521
  0
ARC
  5
15E
330
1F
100
AcDbEntity
  8
0
  6
SLD-Сплошная
 62
     7
370
    25
100
AcDbCircle
 10
56.9750267505
 20
151.1004999079
 30
0.0
 40
8.500000000000037
100
AcDbArc
 50
149.4698138521
 51
180.0
  0
ARC
  5
15F
330
1F
100
AcDbEntity
  8
0
  6
SLD-Сплошная
 62
     7
370
    25
100
AcDbCircle
 10
56.9750267505
 20
151.1004999079
 30
0.0
 40
8.500000000000039
100
AcDbArc
 50
180.0
 51
329.4698138521
  0
ARC
  5
160
330
1F
100
AcDbEntity
  8
0
  6
SLD-Сплошная
 62
     7
370
    25
100
AcDbCircle
 10
56.9750267505
 20
151.1004999079
 30
0.0
 40
22.65000000000003
100
AcDbArc
 50
2.8551658138
 51
56.0844618904
  0
ARC
  5
161
330
1F
100
AcDbEntity
  8
0
  6
SLD-Сплошная
 62
     7
370
    25
100
AcDbCircle
 10
56.9750267505
 20
151.1004999079
 30
0.0
 40
22.65000000000004
100
AcDbArc
 50
62.8551658138
 51
116.0844618904
  0
ARC
  5
162
330
1F
100
AcDbEntity
  8
0
  6
SLD-Сплошная
 62
     7
370
    25
100
AcDbCircle
 10
56.9750267505
 20
151.1004999079
 30
0.0
 40
22.65000000000002
100
AcDbArc
 50
302.8551658138
 51
329.4698138521
  0
ARC
  5
163
330
1F
100
AcDbEntity
  8
0
  6
SLD-Сплошная
 62
     7
370
    25
100
AcDbCircle
 10
56.9750267505
 20
151.1004999079
 30
0.0
 40
22.65000000000006
100
AcDbArc
 50
329.4698138521
 51
356.0844618904
  0
ARC
  5
164
330
1F
100
AcDbEntity
  8
0
  6
SLD-Сплошная
 62
     7
370
    25
100
AcDbCircle
 10
56.9750267505
 20
151.1004999079
 30
0.0
 40
22.65
100
AcDbArc
 50
182.8551658138
 51
236.0844618904
  0
ARC
  5
165
330
1F
100
AcDbEntity
  8
0
  6
SLD-Сплошная
 62
     7
370
    25
100
AcDbCircle
 10
56.9750267505
 20
151.1004999079
 30
0.0
 40
22.65000000000001
100
AcDbArc
 50
149.4698138521
 51
176.0844618904
  0
ARC
  5
166
330
1F
100
AcDbEntity
  8
0
  6
SLD-Сплошная
 62
     7
370
    25
100
AcDbCircle
 10
56.9750267505
 20
151.1004999079
 30
0.0
 40
22.65000000000001
100
AcDbArc
 50
122.8551658138
 51
149.4698138521
  0
ARC
  5
167
330
1F
100
AcDbEntity
  8
0
  6
SLD-Сплошная
 62
     7
370
    25
100
AcDbCircle
 10
56.9750267505
 20
151.1004999079
 30
0.0
 40
22.65000000000001
100
AcDbArc
 50
242.8551658138
 51
296.0844618904
  0
ARC
  5
168
330
1F
100
AcDbEntity
  8
0
  6
SLD-Сплошная
 62
     7
370
    25
100
AcDbCircle
 10
57.0743802008
 20
151.1393424219
 30
0.0
 40
8.5
100
AcDbArc
 50
180.0
 51
181.6854130515
  0
ARC
  5
169
330
1F
100
AcDbEntity
  8
0
  6
SLD-Сплошная
 62
     7
370
    25
100
AcDbCircle
 10
57.0743802008
 20
151.1393424219
 30
0.0
 40
8.500000000000012
100
AcDbArc
 50
238.3145869359
 51
241.6854130484
  0
ARC
  5
16A
330
1F
100
AcDbEntity
  8
0
  6
SLD-Сплошная
 62
     7
370
    25
100
AcDbCircle
 10
57.0743802008
 20
151.1393424219
 30
0.0
 40
8.5
100
AcDbArc
 50
178.3145869519
 51
180.0
  0
LINE
  5
16B
330
1F
100
AcDbEntity
  8
0
  6
SLD-Сплошная
 62
     7
370
    25
100
AcDbLine
 10
52.6097124795
 20
158.3723737462
 30
0.0
 11
52.0486830502
 21
157.9218736297
 31
0.0
  0
SPLINE
  5
16C
330
1F
100
AcDbEntity
  8
0
  6
SLD-Сплошная
 62
     7
370
    25
100
AcDbSpline
210
0.0
220
0.0
230
1.0
 70
     8
 71
     3
 72
    10
 73
     6
 74
     0
 42
0.00000001
 43
0.00000001
 40
0.0
 40
0.0
 40
0.0
 40
0.0
 40
0.2276631548558409
 40
0.6138315774279204
 40
1.0
 40
1.0
 40
1.0
 40
1.0
 10
50.45779359302205
 20
156.3746819419858
 30
0.0
 10
50.19680931033268
 20
156.0550527180691
 30
0.0
 10
49.49313640362739
 20
155.1932597290673
 30
0.0
 10
48.80064244301617
 20
153.476032279998
 30
0.0
 10
48.65225245893455
 20
152.0849057087302
 30
0.0
 10
48.57805746689375
 20
151.3893424230962
 30
0.0
  0
ARC
  5
16D
330
1F
100
AcDbEntity
  8
0
  6
SLD-Сплошная
 62
     7
370
    25
100
AcDbCircle
 10
57.0743802008
 20
151.1393424219
 30
0.0
 40
8.499999999999993
100
AcDbArc
 50
118.314586955
 51
121.6854130676
  0
ARC
  5
16E
330
1F
100
AcDbEntity
  8
0
  6
SLD-Сплошная
 62
     7
370
    25
100
AcDbCircle
 10
57.0743801941
 20
151.1393424249
 30
0.0
 40
25.85493557237989
100
AcDbArc
 50
359.1413233056
 51
359.7230087841
  0
LINE
  5
16F
330
1F
100
AcDbEntity
  8
0
  6
SLD-Сплошная
 62
     7
370
    25
100
AcDbLine
 10
82.9290136327
 20
151.0143495859
 30
0.0
 11
82.9290103922
 21
150.7518781736
 31
0.0
  0
LINE
  5
170
330
1F
100
AcDbEntity
  8
0
  6
SLD-Сплошная
 62
     7
370
    25
100
AcDbLine
 10
82.9290103922
 20
150.7518781736
 30
0.0
 11
82.9262571245
 21
150.7518781736
 31
0.0
  0
ARC
  5
171
330
1F
100
AcDbEntity
  8
0
  6
SLD-Сплошная
 62
     7
370
    25
100
AcDbCircle
 10
57.0743802008
 20
151.1393424192
 30
0.0
 40
27.00000000000225
100
AcDbArc
 50
179.9999999941
 51
359.1777471102
  0
ARC
  5
172
330
1F
100
AcDbEntity
  8
0
  6
SLD-Сплошная
 62
     7
370
    25
100
AcDbCircle
 10
57.0743802008
 20
151.1393424192
 30
0.0
 40
27.00000000000226
100
AcDbArc
 50
0.6203292498
 51
179.9999999941
  0
SPLINE
  5
173
330
1F
100
AcDbEntity
  8
0
  6
SLD-Сплошная
 62
     7
370
    25
100
AcDbSpline
210
0.0
220
0.0
230
1.0
 70
     8
 71
     3
 72
     8
 73
     4
 74
     0
 42
0.00000001
 43
0.00000001
 40
0.0
 40
0.0
 40
0.0
 40
0.0
 40
1.0
 40
1.0
 40
1.0
 40
1.0
 10
84.0743754192751
 20
150.7518781736034
 30
0.0
 10
84.07437821680189
 20
150.9784721465722
 30
0.0
 10
84.07525113414074
 20
151.2050661810947
 30
0.0
 10
84.07279775530854
 20
151.4316599803096
 30
0.0
  0
SPLINE
  5
174
330
1F
100
AcDbEntity
  8
0
  6
SLD-Сплошная
 62
     7
370
    25
100
AcDbSpline
210
0.0
220
0.0
230
1.0
 70
    24
 71
     3
 72
    11
 73
     7
 74
     0
 42
0.00000001
 43
0.00000001
 40
0.0
 40
0.0
 40
0.0
 40
0.0
 40
0.2347938431098859
 40
0.512384643008382
 40
0.7899754429024343
 40
0.9999999999999999
 40
0.9999999999999999
 40
0.9999999999999999
 40
0.9999999999999999
 10
83.01039062358014
 20
150.7518781736034
 30
0.0
 10
83.1681748878465
 20
150.7518781736034
 30
0.0
 10
83.51250348201935
 20
150.7518781736034
 30
0.0
 10
83.84599641175758
 20
150.7518781736034
 30
0.0
 10
84.04449278882625
 20
150.7518781736034
 30
0.0
 10
84.06537925077573
 20
150.7518781736034
 30
0.0
 10
84.07437541928718
 20
150.7518781736034
 30
0.0
  0
ARC
  5
175
330
1F
100
AcDbEntity
  8
0
  6
SLD-Сплошная
 62
     7
370
    25
100
AcDbCircle
 10
57.0743802139
 20
145.8466497315
 30
0.0
 40
1.631552206134714
100
AcDbArc
 50
180.0
 51
0.0
  0
ARC
  5
176
330
1F
100
AcDbEntity
  8
0
  6
SLD-Сплошная
 62
     7
370
    25
100
AcDbCircle
 10
57.0743802139
 20
145.8466497315
 30
0.0
 40
1.631552206134714
100
AcDbArc
 50
0.0
 51
180.0
  0
ARC
  5
177
330
1F
100
AcDbEntity
  8
0
  6
SLD-Сплошная
 62
     7
370
    25
100
AcDbCircle
 10
57.0743802139
 20
145.8466497315
 30
0.0
 40
1.77323192088032
100
AcDbArc
 50
180.0
 51
0.0
  0
ARC
  5
178
330
1F
100
AcDbEntity
  8
0
  6
SLD-Сплошная
 62
     7
370
    25
100
AcDbCircle
 10
57.0743802139
 20
145.8466497315
 30
0.0
 40
1.77323192088032
100
AcDbArc
 50
0.0
 51
180.0
  0
LINE
  5
179
330
1F
100
AcDbEntity
  8
0
  6
SLD-Сплошная
 62
     7
370
    25
100
AcDbLine
 10
55.7455847143
 20
145.9288940472
 30
0.0
 11
58.4030754299
 21
145.9304985855
 31
0.0
  0
LINE
  5
17A
330
1F
100
AcDbEntity
  8
0
  6
SLD-Сплошная
 62
     7
370
    25
100
AcDbLine
 10
58.4031757135
 20
145.7644054158
 30
0.0
 11
58.4030754299
 21
145.9304985855
 31
0.0
  0
LINE
  5
17B
330
1F
100
AcDbEntity
  8
0
  6
SLD-Сплошная
 62
     7
370
    25
100
AcDbLine
 10
57.1574769406
 20
145.7636532885
 30
0.0
 11
58.4031757135
 21
145.7644054158
 31
0.0
  0
LINE
  5
17C
330
1F
100
AcDbEntity
  8
0
  6
SLD-Сплошная
 62
     7
370
    25
100
AcDbLine
 10
57.1574769406
 20
145.7636532885
 30
0.0
 11
57.1582457818
 21
144.4902723206
 31
0.0
  0
LINE
  5
17D
330
1F
100
AcDbEntity
  8
0
  6
SLD-Сплошная
 62
     7
370
    25
100
AcDbLine
 10
56.9921526121
 20
144.4901720369
 30
0.0
 11
57.1582457818
 21
144.4902723206
 31
0.0
  0
LINE
  5
17E
330
1F
100
AcDbEntity
  8
0
  6
SLD-Сплошная
 62
     7
370
    25
100
AcDbLine
 10
56.9913837709
 20
145.7635530048
 30
0.0
 11
56.9921526121
 21
144.4901720369
 31
0.0
  0
LINE
  5
17F
330
1F
100
AcDbEntity
  8
0
  6
SLD-Сплошная
 62
     7
370
    25
100
AcDbLine
 10
55.7456849979
 20
145.7628008775
 30
0.0
 11
56.9913837709
 21
145.7635530048
 31
0.0
  0
LINE
  5
180
330
1F
100
AcDbEntity
  8
0
  6
SLD-Сплошная
 62
     7
370
    25
100
AcDbLine
 10
55.7456849979
 20
145.7628008775
 30
0.0
 11
55.7455847143
 21
145.9288940472
 31
0.0
  0
LINE
  5
181
330
1F
100
AcDbEntity
  8
0
  6
SLD-Сплошная
 62
     7
370
    25
100
AcDbLine
 10
56.2435299446
 20
146.4828387972
 30
0.0
 11
56.2445349991
 21
146.3167461738
 31
0.0
  0
LINE
  5
182
330
1F
100
AcDbEntity
  8
0
  6
SLD-Сплошная
 62
     7
370
    25
100
AcDbLine
 10
56.2445349991
 20
146.3167461738
 30
0.0
 11
57.9045619255
 21
146.3177484639
 31
0.0
  0
LINE
  5
183
330
1F
100
AcDbEntity
  8
0
  6
SLD-Сплошная
 62
     7
370
    25
100
AcDbLine
 10
57.9044616419
 20
146.4838416337
 30
0.0
 11
57.9045619255
 21
146.3177484639
 31
0.0
  0
LINE
  5
184
330
1F
100
AcDbEntity
  8
0
  6
SLD-Сплошная
 62
     7
370
    25
100
AcDbLine
 10
56.2435299446
 20
146.4828387972
 30
0.0
 11
57.9044616419
 21
146.4838416337
 31
0.0
  0
LINE
  5
185
330
1F
100
AcDbEntity
  8
0
  6
SLD-Сплошная
 62
     7
370
    25
100
AcDbLine
 10
56.6749376235
 20
147.2028366035
 30
0.0
 11
57.4721848381
 21
147.203317965
 31
0.0
  0
LINE
  5
186
330
1F
100
AcDbEntity
  8
0
  6
SLD-Сплошная
 62
     7
370
    25
100
AcDbLine
 10
56.6750379071
 20
147.0367434338
 30
0.0
 11
57.4722851218
 21
147.0372247953
 31
0.0
  0
LINE
  5
187
330
1F
100
AcDbEntity
  8
0
  6
SLD-Сплошная
 62
     7
370
    25
100
AcDbLine
 10
57.4722851218
 20
147.0372247953
 30
0.0
 11
57.4721848381
 21
147.203317965
 31
0.0
  0
LINE
  5
188
330
1F
100
AcDbEntity
  8
0
  6
SLD-Сплошная
 62
     7
370
    25
100
AcDbLine
 10
56.6750379071
 20
147.0367434338
 30
0.0
 11
56.6749376235
 21
147.2028366035
 31
0.0
  0
LINE
  5
189
330
1F
100
AcDbEntity
  8
0
  6
SLD-Сплошная
 62
     7
370
    25
100
AcDbLine
 10
51.9243802139
 20
148.3010237413
 30
0.0
 11
51.9243802139
 21
144.4566249482
 31
0.0
  0
LINE
  5
18A
330
1F
100
AcDbEntity
  8
0
  6
SLD-Сплошная
 62
     7
370
    25
100
AcDbLine
 10
54.8243802139
 20
142.9639666148
 30
0.0
 11
54.8243802139
 21
143.3010237413
 31
0.0
  0
LINE
  5
18B
330
1F
100
AcDbEntity
  8
0
  6
SLD-Сплошная
 62
     7
370
    25
100
AcDbLine
 10
59.3243802139
 20
143.3010237413
 30
0.0
 11
59.3243802139
 21
142.9514759803
 31
0.0
  0
LINE
  5
18C
330
1F
100
AcDbEntity
  8
0
  6
SLD-Сплошная
 62
     7
370
    25
100
AcDbLine
 10
54.8243802139
 20
143.3010237413
 30
0.0
 11
59.3243802139
 21
143.3010237413
 31
0.0
  0
LINE
  5
18D
330
1F
100
AcDbEntity
  8
0
  6
SLD-Сплошная
 62
     7
370
    25
100
AcDbLine
 10
62.2243802139
 20
148.3010237413
 30
0.0
 11
62.2243802139
 21
144.4151212188
 31
0.0
  0
LINE
  5
18E
330
1F
100
AcDbEntity
  8
0
  6
SLD-Сплошная
 62
     7
370
    25
100
AcDbLine
 10
62.2243802139
 20
148.3010237413
 30
0.0
 11
51.9243802139
 21
148.3010237413
 31
0.0
  0
LINE
  5
18F
330
1F
100
AcDbEntity
  8
0
  6
SLD-Сплошная
 62
     7
370
    25
100
AcDbLine
 10
55.0906490056
 20
143.3010237413
 30
0.0
 11
55.0906490056
 21
142.8856784626
 31
0.0
  0
LINE
  5
190
330
1F
100
AcDbEntity
  8
0
  6
SLD-Сплошная
 62
     7
370
    25
100
AcDbLine
 10
59.0906490056
 20
143.3010237413
 30
0.0
 11
59.0906490056
 21
142.8897189222
 31
0.0
  0
LINE
  5
191
330
1F
100
AcDbEntity
  8
0
  6
SLD-Сплошная
 62
     7
370
    25
100
AcDbLine
 10
69.8743802008
 20
180.4857301166
 30
0.0
 11
75.5743802008
 21
180.4857301166
 31
0.0
  0
LINE
  5
192
330
1F
100
AcDbEntity
  8
0
  6
SLD-Сплошная
 62
     7
370
    25
100
AcDbLine
 10
75.5743802008
 20
180.4857301166
 30
0.0
 11
75.5743802008
 21
176.6344399899
 31
0.0
  0
ARC
  5
193
330
1F
100
AcDbEntity
  8
0
  6
SLD-Сплошная
 62
     7
370
    25
100
AcDbCircle
 10
57.0743802008
 20
121.8393424219
 30
0.0
 40
6.500000000000004
100
AcDbArc
 50
193.9011062024
 51
346.0988937976
  0
ARC
  5
194
330
1F
100
AcDbEntity
  8
0
  6
SLD-Сплошная
 62
     7
370
    25
100
AcDbCircle
 10
57.0743802008
 20
151.1393424219
 30
0.0
 40
31.50000000000001
100
AcDbArc
 50
125.9657387275
 51
258.4451686673
  0
LINE
  5
195
330
1F
100
AcDbEntity
  8
0
  6
SLD-Сплошная
 62
     7
370
    25
100
AcDbLine
 10
38.5743868028
 20
176.6344447805
 30
0.0
 11
38.5743868028
 21
180.4857301166
 31
0.0
  0
LINE
  5
196
330
1F
100
AcDbEntity
  8
0
  6
SLD-Сплошная
 62
     7
370
    25
100
AcDbLine
 10
38.5743868028
 20
180.4857301166
 30
0.0
 11
44.2743868028
 21
180.4857301166
 31
0.0
  0
LINE
  5
197
330
1F
100
AcDbEntity
  8
0
  6
SLD-Сплошная
 62
     7
370
    25
100
AcDbLine
 10
44.2743868028
 20
179.9214578589
 30
0.0
 11
44.2743868028
 21
180.4857301166
 31
0.0
  0
ARC
  5
198
330
1F
100
AcDbEntity
  8
0
  6
SLD-Сплошная
 62
     7
370
    25
100
AcDbCircle
 10
57.0743802008
 20
151.1393424219
 30
0.0
 40
31.50000000027249
100
AcDbArc
 50
66.0242969789
 51
113.9756898786
  0
LINE
  5
199
330
1F
100
AcDbEntity
  8
0
  6
SLD-Сплошная
 62
     7
370
    25
100
AcDbLine
 10
69.8743802008
 20
180.4857301166
 30
0.0
 11
69.8743802008
 21
179.9214549229
 31
0.0
  0
ARC
  5
19A
330
1F
100
AcDbEntity
  8
0
  6
SLD-Сплошная
 62
     7
370
    25
100
AcDbCircle
 10
57.0743802008
 20
151.1393424219
 30
0.0
 40
31.50000000000002
100
AcDbArc
 50
281.5548313327
 51
54.0342464357
  0
LINE
  5
19B
330
1F
100
AcDbEntity
  8
0
  6
SLD-Сплошная
 62
     7
370
    25
100
AcDbLine
 10
75.5743802008
 20
180.4857301166
 30
0.0
 11
75.5743802008
 21
197.7772528274
 31
0.0
  0
LINE
  5
19C
330
1F
100
AcDbEntity
  8
0
  6
SLD-Сплошная
 62
     7
370
    25
100
AcDbLine
 10
69.8743802133
 20
196.1325794731
 30
0.0
 11
69.8743802008
 21
180.4857301166
 31
0.0
  0
LINE
  5
19D
330
1F
100
AcDbEntity
  8
0
  6
SLD-Сплошная
 62
     7
370
    25
100
AcDbLine
 10
38.5743868028
 20
180.4857301166
 30
0.0
 11
38.5743868026
 21
197.777299683
 31
0.0
  0
LINE
  5
19E
330
1F
100
AcDbEntity
  8
0
  6
SLD-Сплошная
 62
     7
370
    25
100
AcDbLine
 10
44.2743868028
 20
180.4857301166
 30
0.0
 11
44.2743802139
 21
196.1325794731
 31
0.0
  0
LINE
  5
19F
330
1F
100
AcDbEntity
  8
0
  6
SLD-Сплошная
 62
     7
370
    25
100
AcDbLine
 10
75.5743802008
 20
199.1263969919
 30
0.0
 11
69.8743802011
 21
199.1263969919
 31
0.0
  0
LINE
  5
1A0
330
1F
100
AcDbEntity
  8
0
  6
SLD-Сплошная
 62
     7
370
    25
100
AcDbLine
 10
75.5743802008
 20
199.1263969919
 30
0.0
 11
75.5743802008
 21
197.7772528274
 31
0.0
  0
LINE
  5
1A1
330
1F
100
AcDbEntity
  8
0
  6
SLD-Сплошная
 62
     7
370
    25
100
AcDbLine
 10
44.2743868032
 20
199.1263969919
 30
0.0
 11
39.0743868036
 21
199.1263969919
 31
0.0
  0
LINE
  5
1A2
330
1F
100
AcDbEntity
  8
0
  6
SLD-Сплошная
 62
     7
370
    25
100
AcDbLine
 10
38.5743868026
 20
197.777299683
 30
0.0
 11
38.5743868026
 21
199.1263969919
 31
0.0
  0
SPLINE
  5
1A3
330
1F
100
AcDbEntity
  8
0
  6
SLD-Сплошная
 62
     7
370
    25
100
AcDbSpline
210
0.0
220
0.0
230
1.0
 70
     8
 71
     3
 72
    23
 73
    19
 74
     0
 42
0.00000001
 43
0.00000001
 40
0.0
 40
0.0
 40
0.0
 40
0.0
 40
0.0097081735325336
 40
0.0759907053184276
 40
0.1422229153480271
 40
0.2079601630104367
 40
0.2736770673518811
 40
0.339965770104685
 40
0.4062345955102792
 40
0.4719719111141862
 40
0.5376888078128955
 40
0.6039775190800307
 40
0.6702463445048881
 40
0.7359836591199068
 40
0.8017016389252322
 40
0.8679471102584281
 40
0.9342201004437922
 40
1.0
 40
1.0
 40
1.0
 40
1.0
 10
38.57438680284233
 20
179.5968476860903
 30
0.0
 10
38.34213575686032
 20
179.4664029160145
 30
0.0
 10
36.5241912448498
 20
178.4453467873876
 30
0.0
 10
33.57939385260789
 20
175.8196438744975
 30
0.0
 10
29.89035755003053
 20
171.8204978534085
 30
0.0
 10
26.9584105248085
 20
167.2226878150675
 30
0.0
 10
24.78230509262826
 20
162.2323926662675
 30
0.0
 10
23.44519785928206
 20
156.9374400553209
 30
0.0
 10
22.93285450568189
 20
151.5010110106342
 30
0.0
 10
23.30829744974873
 20
146.0675550591784
 30
0.0
 10
24.54572283360162
 20
140.7631121286298
 30
0.0
 10
26.63242767941932
 20
135.7173710367133
 30
0.0
 10
29.46674510382091
 20
131.0494790798791
 30
0.0
 10
33.01150419468067
 20
126.9154023828433
 30
0.0
 10
37.16876533684243
 20
123.3950530641271
 30
0.0
 10
41.85525274598866
 20
120.6050582764517
 30
0.0
 10
46.90867543482898
 20
118.5031435625896
 30
0.0
 10
50.47393683528343
 20
117.8224470923228
 30
0.0
 10
52.24991112310462
 20
117.4833697307441
 30
0.0
  0
LINE
  5
1A4
330
1F
100
AcDbEntity
  8
0
  6
SLD-Сплошная
 62
     7
370
    25
100
AcDbLine
 10
55.5743801998
 20
113.1689592363
 30
0.0
 11
55.5743802006
 21
115.5147871052
 31
0.0
  0
LINE
  5
1A5
330
1F
100
AcDbEntity
  8
0
  6
SLD-Сплошная
 62
     7
370
    25
100
AcDbLine
 10
65.0743801956
 20
113.9909911907
 30
0.0
 11
65.0743801949
 21
118.0939191334
 31
0.0
  0
SPLINE
  5
1A6
330
1F
100
AcDbEntity
  8
0
  6
SLD-Сплошная
 62
     7
370
    25
100
AcDbSpline
210
0.0
220
0.0
230
1.0
 70
     8
 71
     3
 72
    19
 73
    15
 74
     0
 42
0.00000001
 43
0.00000001
 40
0.0
 40
0.0
 40
0.0
 40
0.0
 40
0.0625702982800124
 40
0.1250888771025978
 40
0.1875711582395603
 40
0.2500325903484822
 40
0.3124886375581238
 40
0.3749547679965059
 40
0.4374464423041559
 40
0.499979102175125
 40
0.6249709105952026
 40
0.7498890863314953
 40
0.8748575317744751
 40
1.0
 40
1.0
 40
1.0
 40
1.0
 10
55.57438019982522
 20
113.1689592362975
 30
0.0
 10
55.77366309221541
 20
113.1619943907903
 30
0.0
 10
56.17206415342324
 20
113.1480704567891
 30
0.0
 10
56.76978990067209
 20
113.1390774396493
 30
0.0
 10
57.36721809879884
 20
113.1388089305623
 30
0.0
 10
57.9643821774682
 20
113.1481158039152
 30
0.0
 10
58.56127325253452
 20
113.166769956703
 30
0.0
 10
59.15789279680256
 20
113.1948335576648
 30
0.0
 10
59.75424314306821
 20
113.2322859211828
 30
0.0
 10
60.54857366138514
 20
113.2947343880539
 30
0.0
 10
61.53930754905092
 20
113.395980419061
 30
0.0
 10
62.72342255094761
 20
113.5555596598592
 30
0.0
 10
63.90298607322753
 20
113.7498142575412
 30
0.0
 10
64.68373441112547
 20
113.9105615978885
 30
0.0
 10
65.07438019556743
 20
113.9909911906508
 30
0.0
  0
SPLINE
  5
1A7
330
1F
100
AcDbEntity
  8
0
  6
SLD-Сплошная
 62
     7
370
    25
100
AcDbSpline
210
0.0
220
0.0
230
1.0
 70
     8
 71
     3
 72
    44
 73
    40
 74
     0
 42
0.00000001
 43
0.00000001
 40
0.0
 40
0.0
 40
0.0
 40
0.0
 40
0.0131584494545849
 40
0.0262942281999962
 40
0.0394114101265406
 40
0.0525140864709315
 40
0.0656063620685419
 40
0.0786923515423203
 40
0.091776175445829
 40
0.1048619563783658
 40
0.1179538150904353
 40
0.1310558665979422
 40
0.1441722163233831
 40
0.1573069562820163
 40
0.1704641613305012
 40
0.1836478854948251
 40
0.1968621583934832
 40
0.2101109817708841
 40
0.2233983261548103
 40
0.2367281276505069
 40
0.2501042848826281
 40
0.3131550903412655
 40
0.3755306626622531
 40
0.4376662588657184
 40
0.5000021630345917
 40
0.5622634991712164
 40
0.6243722365803808
 40
0.6867692246112576
 40
0.7498892732155824
 40
0.775244858870449
 40
0.8004500362096191
 40
0.8255319803381427
 40
0.8505182684498931
 40
0.8754367953266978
 40
0.9003156836777945
 40
0.9251831906946276
 40
0.9500676123404649
 40
0.9749971869825044
 40
1.0
 40
1.0
 40
1.0
 40
1.0
 10
65.07438019490813
 20
118.0939191333715
 30
0.0
 10
65.26732671404818
 20
118.141669431742
 30
0.0
 10
65.65288732452693
 20
118.2370877594337
 30
0.0
 10
66.22749096378017
 20
118.3929501242409
 30
0.0
 10
66.79863265862332
 20
118.5579660130396
 30
0.0
 10
67.36608942201859
 20
118.7330557823639
 30
0.0
 10
67.92992066484057
 20
118.9179732821967
 30
0.0
 10
68.49011027313496
 20
119.1127843259009
 30
0.0
 10
69.04666234442597
 20
119.3174712385511
 30
0.0
 10
69.59957557017907
 20
119.5320386796696
 30
0.0
 10
70.14885009552356
 20
119.7564853122285
 30
0.0
 10
70.69448568335731
 20
119.9908113920809
 30
0.0
 10
71.2364822067382
 20
120.2350167335635
 30
0.0
 10
71.77483952094423
 20
120.4891012607155
 30
0.0
 10
72.30955748774595
 20
120.7530648418739
 30
0.0
 10
72.84063601117705
 20
121.0269074043376
 30
0.0
 10
73.36807487377926
 20
121.3106286455124
 30
0.0
 10
73.89187436151713
 20
121.6042290824695
 30
0.0
 10
74.4120329219886
 20
121.9077061334882
 30
0.0
 10
74.92855594554565
 20
122.2210688093496
 30
0.0
 10
76.07559307094988
 20
122.943943009345
 30
0.0
 10
77.79532952285207
 20
124.147955652595
 30
0.0
 10
79.97581364889015
 20
125.9619483647133
 30
0.0
 10
81.98820724109976
 20
127.9456991513216
 30
0.0
 10
83.82516264335688
 20
130.0904971906936
 30
0.0
 10
85.47783611689447
 20
132.3798220748353
 30
0.0
 10
86.93176337400077
 20
134.8014506490498
 30
0.0
 10
88.18222904005762
 20
137.3484110205559
 30
0.0
 10
89.01467457069955
 20
139.4729134453518
 30
0.0
 10
89.55081424071965
 20
141.1044714710281
 30
0.0
 10
89.87192425393484
 20
142.2012589447415
 30
0.0
 10
90.15525518073864
 20
143.3026300143333
 30
0.0
 10
90.40080418671594
 20
144.408607954899
 30
0.0
 10
90.60858557857085
 20
145.5191819288411
 30
0.0
 10
90.77853261554456
 20
146.6343497853024
 30
0.0
 10
90.9108881483067
 20
147.7541068006547
 30
0.0
 10
91.00474074615566
 20
148.8784486756928
 30
0.0
 10
91.0634977217931
 20
150.0073713205701
 30
0.0
 10
91.07074916018676
 20
150.761649943621
 30
0.0
 10
91.07438019741055
 20
151.1393424245779
 30
0.0
  0
SPLINE
  5
1A8
330
1F
100
AcDbEntity
  8
0
  6
SLD-Сплошная
 62
     7
370
    25
100
AcDbSpline
210
0.0
220
0.0
230
1.0
 70
     8
 71
     3
 72
    15
 73
    11
 74
     0
 42
0.00000001
 43
0.00000001
 40
0.0
 40
0.0
 40
0.0
 40
0.0
 40
0.1419570971108025
 40
0.2839141942216051
 40
0.4258712913324076
 40
0.5678283884432099
 40
0.7097854855540126
 40
0.851742582664815
 40
0.9936996797756176
 40
1.0
 40
1.0
 40
1.0
 40
1.0
 10
91.07438020084227
 20
151.1393424219286
 30
0.0
 10
91.00898331201562
 20
152.7404864013044
 30
0.0
 10
90.87818953436229
 20
155.9427743600559
 30
0.0
 10
89.82671368710676
 20
160.6501744907475
 30
0.0
 10
88.17201793276371
 20
165.1693426986957
 30
0.0
 10
85.88181259602848
 20
169.4041568004992
 30
0.0
 10
83.0316610856647
 20
173.2929333463333
 30
0.0
 10
79.6238984972737
 20
176.6734656594645
 30
0.0
 10
77.09596914906803
 20
178.8003785234149
 30
0.0
 10
75.636405549913
 20
179.6139444792041
 30
0.0
 10
75.57438020084234
 20
179.6485176299931
 30
0.0
  0
SPLINE
  5
1A9
330
1F
100
AcDbEntity
  8
0
  6
SLD-Сплошная
 62
     7
370
    25
100
AcDbSpline
210
0.0
220
0.0
230
1.0
 70
     8
 71
     3
 72
    11
 73
     7
 74
     0
 42
0.00000001
 43
0.00000001
 40
0.0
 40
0.0
 40
0.0
 40
0.0
 40
0.2955997319843456
 40
0.5920629831270059
 40
0.8882623075143857
 40
0.9999999999999999
 40
0.9999999999999999
 40
0.9999999999999999
 40
0.9999999999999999
 10
89.38422662569047
 20
131.1374968992524
 30
0.0
 10
90.08989751479662
 20
132.3609052293922
 30
0.0
 10
91.5033007303726
 20
134.811295764805
 30
0.0
 10
93.05609848521891
 20
138.7631949287032
 30
0.0
 10
94.05075954329887
 20
141.9871867000958
 30
0.0
 10
94.34258903284088
 20
143.9123599543624
 30
0.0
 10
94.42252380809276
 20
144.4396825756722
 30
0.0
  0
SPLINE
  5
1AA
330
1F
100
AcDbEntity
  8
0
  6
SLD-Сплошная
 62
     7
370
    25
100
AcDbSpline
210
0.0
220
0.0
230
1.0
 70
     8
 71
     3
 72
    16
 73
    12
 74
     0
 42
0.00000001
 43
0.00000001
 40
0.0
 40
0.0
 40
0.0
 40
0.0
 40
0.0554146868618741
 40
0.1814167865230377
 40
0.307361790022511
 40
0.4337763591743026
 40
0.5601308589883415
 40
0.686104647097705
 40
0.8120156832603166
 40
0.9383519792814599
 40
1.0
 40
1.0
 40
1.0
 40
1.0
 10
94.41784494312017
 20
157.8396825756706
 30
0.0
 10
94.3219263699204
 20
158.4525638167913
 30
0.0
 10
94.00790782532133
 20
160.4590164664563
 30
0.0
 10
92.98377995937082
 20
163.7574815670536
 30
0.0
 10
91.3782451907218
 20
167.6790851702577
 30
0.0
 10
89.31424137871116
 20
171.3923688643851
 30
0.0
 10
86.86258423770757
 20
174.8585215837763
 30
0.0
 10
84.04165280786943
 20
178.028795867733
 30
0.0
 10
80.87479406581856
 20
180.8442460746643
 30
0.0
 10
78.03638346490743
 20
182.9388591077527
 30
0.0
 10
76.18238487594819
 20
183.936540160175
 30
0.0
 10
75.57438020084234
 20
184.2637220403284
 30
0.0
  0
ARC
  5
1AB
330
1F
100
AcDbEntity
  8
0
  6
SLD-Сплошная
 62
     7
370
    25
100
AcDbCircle
 10
57.0743802008
 20
151.1393424219
 30
0.0
 40
37.99999999999999
100
AcDbArc
 50
322.7522191041
 51
328.2398634954
  0
LINE
  5
1AC
330
1F
100
AcDbEntity
  8
0
  6
SLD-Сплошная
 62
     7
370
    25
100
AcDbLine
 10
82.1143482519
 20
128.1393424219
 30
0.0
 11
87.3233471253
 21
128.1393424219
 31
0.0
  0
SPLINE
  5
1AD
330
1F
100
AcDbEntity
  8
0
  6
SLD-Сплошная
 62
     7
370
    25
100
AcDbSpline
210
0.0
220
0.0
230
1.0
 70
     8
 71
     3
 72
    10
 73
     6
 74
     0
 42
0.00000001
 43
0.00000001
 40
0.0
 40
0.0
 40
0.0
 40
0.0
 40
0.3826139997310172
 40
0.7666684963635371
 40
1.0
 40
1.0
 40
1.0
 40
1.0
 10
23.92185029174081
 20
169.7110887323438
 30
0.0
 10
23.18989268199147
 20
168.2731040086633
 30
0.0
 10
21.72322172781077
 20
165.3917207172182
 30
0.0
 10
20.36398225334294
 20
161.3739119045918
 30
0.0
 10
19.91648147087641
 20
158.8090373141443
 30
0.0
 10
19.74735546153068
 20
157.8396825756706
 30
0.0
  0
ARC
  5
1AE
330
1F
100
AcDbEntity
  8
0
  6
SLD-Сплошная
 62
     7
370
    25
100
AcDbCircle
 10
57.0743802008
 20
151.1393424219
 30
0.0
 40
38.00000000000001
100
AcDbArc
 50
143.5632601776
 51
150.742846807
  0
LINE
  5
1AF
330
1F
100
AcDbEntity
  8
0
  6
SLD-Сплошная
 62
     7
370
    25
100
AcDbLine
 10
31.6457249304
 20
173.7088681399
 30
0.0
 11
26.5028818917
 21
173.7088681399
 31
0.0
  0
SPLINE
  5
1B0
330
1F
100
AcDbEntity
  8
0
  6
SLD-Сплошная
 62
     7
370
    25
100
AcDbSpline
210
0.0
220
0.0
230
1.0
 70
     8
 71
     3
 72
    18
 73
    14
 74
     0
 42
0.00000001
 43
0.00000001
 40
0.0
 40
0.0
 40
0.0
 40
0.0
 40
0.0574625531152327
 40
0.1516409512438525
 40
0.2458021187008895
 40
0.3403092481694739
 40
0.4344794186804423
 40
0.5286218958118756
 40
0.6231094473650669
 40
0.7172605370039619
 40
0.8113774336232529
 40
0.9058223073045841
 40
0.9999999999999999
 40
0.9999999999999999
 40
0.9999999999999999
 40
0.9999999999999999
 10
19.74570926405206
 20
144.4396825756705
 30
0.0
 10
19.91306311056609
 20
143.4686995821882
 30
0.0
 10
20.35470197107431
 20
140.9063215326439
 30
0.0
 10
21.7452519798572
 20
136.9092580925837
 30
0.0
 10
23.82451989491356
 20
132.5238683552156
 30
0.0
 10
26.46936484731799
 20
128.4453514369901
 30
0.0
 10
29.60368192872764
 20
124.7334525459284
 30
0.0
 10
33.18899570542136
 20
121.4533803226529
 30
0.0
 10
37.16101884181047
 20
118.6556324986821
 30
0.0
 10
41.45618821141058
 20
116.3816469363768
 30
0.0
 10
46.00646871868722
 20
114.6874809173853
 30
0.0
 10
50.73501071691863
 20
113.5399755085658
 30
0.0
 10
53.96278106799961
 20
113.2925144827489
 30
0.0
 10
55.5743801998252
 20
113.1689592322231
 30
0.0
  0
ARC
  5
1B1
330
1F
100
AcDbEntity
  8
0
  6
SLD-Сплошная
 62
     7
370
    25
100
AcDbCircle
 10
57.0743802012
 20
151.1393424212
 30
0.0
 40
32.90213855999999
100
AcDbArc
 50
111.8260560219
 51
112.8942973296
  0
SPLINE
  5
1B2
330
1F
100
AcDbEntity
  8
0
  6
SLD-Сплошная
 62
     7
370
    25
100
AcDbSpline
210
0.0
220
0.0
230
1.0
 70
     8
 71
     3
 72
    14
 73
    10
 74
     0
 42
0.00000001
 43
0.00000001
 40
0.0
 40
0.0
 40
0.0
 40
0.0
 40
0.25
 40
0.25
 40
0.5
 40
0.5
 40
0.75
 40
0.75
 40
1.0
 40
1.0
 40
1.0
 40
1.0
 10
69.8743802008423
 20
181.4503018788781
 30
0.0
 10
67.90288180774573
 20
182.2828449553236
 30
0.0
 10
65.84994828729037
 20
182.9224134170134
 30
0.0
 10
61.65893186471428
 20
183.7913880420377
 30
0.0
 10
59.52095003970735
 20
184.0207732479421
 30
0.0
 10
55.24097983217991
 20
184.0606552792673
 30
0.0
 10
53.0990946720567
 20
183.8711511428062
 30
0.0
 10
48.89261268320823
 20
183.0804268976541
 30
0.0
 10
46.82811730452902
 20
182.4792258593422
 30
0.0
 10
44.84144683522331
 20
181.683566173835
 30
0.0
  0
LINE
  5
1B3
330
1F
100
AcDbEntity
  8
0
  6
SLD-Сплошная
 62
     7
370
    25
100
AcDbLine
 10
69.8743802133
 20
189.076698419
 30
0.0
 11
44.2743802139
 21
189.076698419
 31
0.0
  0
LINE
  5
1B4
330
1F
100
AcDbEntity
  8
0
  6
SLD-Сплошная
 62
     7
370
    25
100
AcDbLine
 10
44.2743802139
 20
199.5743424035
 30
0.0
 11
44.2743802139
 21
196.1325794731
 31
0.0
  0
LINE
  5
1B5
330
1F
100
AcDbEntity
  8
0
  6
SLD-Сплошная
 62
     7
370
    25
100
AcDbLine
 10
69.8743802133
 20
199.5743424035
 30
0.0
 11
69.8743802133
 21
196.3987428431
 31
0.0
  0
LINE
  5
1B6
330
1F
100
AcDbEntity
  8
0
  6
SLD-Сплошная
 62
     7
370
    25
100
AcDbLine
 10
69.8743802133
 20
196.3987428431
 30
0.0
 11
69.8743802133
 21
196.1325794731
 31
0.0
  0
ARC
  5
1B7
330
1F
100
AcDbEntity
  8
0
  6
SLD-Сплошная
 62
     7
370
    25
100
AcDbCircle
 10
56.8743737173
 20
151.5396825757
 30
0.0
 40
32.89999999999639
100
AcDbArc
 50
98.3883232548
 51
112.5183018833
  0
ARC
  5
1B8
330
1F
100
AcDbEntity
  8
0
  6
SLD-Сплошная
 62
     7
370
    25
100
AcDbCircle
 10
56.8743737173
 20
151.5396825757
 30
0.0
 40
32.8999999999965
100
AcDbArc
 50
66.725482851
 51
76.2870729768
  0
SPLINE
  5
1B9
330
1F
100
AcDbEntity
  8
0
  6
SLD-Сплошная
 62
     7
370
    25
100
AcDbSpline
210
0.0
220
0.0
230
1.0
 70
     8
 71
     3
 72
    11
 73
     7
 74
     0
 42
0.00000001
 43
0.00000001
 40
0.0
 40
0.0
 40
0.0
 40
0.0
 40
0.2476299136921856
 40
0.4970001932988413
 40
0.7002370902319137
 40
0.9999999999999999
 40
0.9999999999999999
 40
0.9999999999999999
 40
0.9999999999999999
 10
63.3743667673118
 20
183.7911955688665
 30
0.0
 10
63.48318902612588
 20
183.7689154354129
 30
0.0
 10
63.70159835664417
 20
183.7241985816691
 30
0.0
 10
64.00627798774893
 20
183.6579812770219
 30
0.0
 10
64.33039533640687
 20
183.5836627466122
 30
0.0
 10
64.54596227699255
 20
183.5329181537592
 30
0.0
 10
64.67442947021785
 20
183.5026768959973
 30
0.0
  0
ARC
  5
1BA
330
1F
100
AcDbEntity
  8
0
  6
SLD-Сплошная
 62
     7
370
    25
100
AcDbCircle
 10
56.8743737173
 20
151.5396825757
 30
0.0
 40
32.89999999999639
100
AcDbArc
 50
78.605211407
 51
95.7561893347
  0
SPLINE
  5
1BB
330
1F
100
AcDbEntity
  8
0
  6
SLD-Сплошная
 62
     7
370
    25
100
AcDbSpline
210
0.0
220
0.0
230
1.0
 70
     8
 71
     3
 72
     9
 73
     5
 74
     0
 42
0.00000001
 43
0.00000001
 40
0.0
 40
0.0
 40
0.0
 40
0.0
 40
0.5021602541220515
 40
1.0
 40
1.0
 40
1.0
 40
1.0
 10
52.07438021388689
 20
184.0884609648253
 30
0.0
 10
52.32334357153871
 20
184.1233470315285
 30
0.0
 10
52.81912824507305
 20
184.1928190106762
 30
0.0
 10
53.32335573061835
 20
184.2472722939925
 30
0.0
 10
53.5743802138869
 20
184.2743813027208
 30
0.0
  0
ARC
  5
1BC
330
1F
100
AcDbEntity
  8
0
  6
SLD-Сплошная
 62
     7
370
    25
100
AcDbCircle
 10
56.8743734906
 20
151.1396825757
 30
0.0
 40
44.50000000000001
100
AcDbArc
 50
114.2824804377
 51
180.0
  0
ARC
  5
1BD
330
1F
100
AcDbEntity
  8
0
  6
SLD-Сплошная
 62
     7
370
    25
100
AcDbCircle
 10
56.8743734906
 20
151.1396825757
 30
0.0
 40
44.50000000000004
100
AcDbArc
 50
180.0
 51
65.1512147224
  0
ARC
  5
1BE
330
1F
100
AcDbEntity
  8
0
  6
SLD-Сплошная
 62
     7
370
    25
100
AcDbCircle
 10
56.8743734906
 20
151.1396825757
 30
0.0
 40
40.00000000301046
100
AcDbArc
 50
117.2258829115
 51
170.3575045362
  0
ARC
  5
1BF
330
1F
100
AcDbEntity
  8
0
  6
SLD-Сплошная
 62
     7
370
    25
100
AcDbCircle
 10
56.8743734906
 20
151.1396825757
 30
0.0
 40
40.00000000301047
100
AcDbArc
 50
9.6424954638
 51
62.1278510117
  0
LINE
  5
1C0
330
1F
100
AcDbEntity
  8
0
  6
SLD-Сплошная
 62
     7
370
    25
100
AcDbLine
 10
17.4394904554
 20
157.8396825757
 30
0.0
 11
22.5216443414
 21
157.8396825757
 31
0.0
  0
ARC
  5
1C1
330
1F
100
AcDbEntity
  8
0
  6
SLD-Сплошная
 62
     7
370
    25
100
AcDbCircle
 10
56.8743734906
 20
151.1396825757
 30
0.0
 40
35.00000000000001
100
AcDbArc
 50
168.9638342604
 51
191.0361657396
  0
LINE
  5
1C2
330
1F
100
AcDbEntity
  8
0
  6
SLD-Сплошная
 62
     7
370
    25
100
AcDbLine
 10
17.4394904554
 20
144.4396825757
 30
0.0
 11
22.5216443414
 21
144.4396825757
 31
0.0
  0
ARC
  5
1C3
330
1F
100
AcDbEntity
  8
0
  6
SLD-Сплошная
 62
     7
370
    25
100
AcDbCircle
 10
56.8743734906
 20
151.1396825757
 30
0.0
 40
40.00000000301041
100
AcDbArc
 50
189.6424954638
 51
350.3575045369
  0
LINE
  5
1C4
330
1F
100
AcDbEntity
  8
0
  6
SLD-Сплошная
 62
     7
370
    25
100
AcDbLine
 10
96.3092565288
 20
144.4396825757
 30
0.0
 11
91.2271026398
 21
144.4396825757
 31
0.0
  0
ARC
  5
1C5
330
1F
100
AcDbEntity
  8
0
  6
SLD-Сплошная
 62
     7
370
    25
100
AcDbCircle
 10
56.8743734906
 20
151.1396825757
 30
0.0
 40
35.00000000000004
100
AcDbArc
 50
348.9638342604
 51
11.0361657396
  0
LINE
  5
1C6
330
1F
100
AcDbEntity
  8
0
  6
SLD-Сплошная
 62
     7
370
    25
100
AcDbLine
 10
96.3092565258
 20
157.8396825757
 30
0.0
 11
91.2271026398
 21
157.8396825757
 31
0.0
  0
ARC
  5
1C7
330
1F
100
AcDbEntity
  8
0
  6
SLD-Сплошная
 62
     7
370
    25
100
AcDbCircle
 10
56.8743734906
 20
151.1396825757
 30
0.0
 40
39.73067366568505
100
AcDbArc
 50
189.7084906658
 51
350.2915093342
  0
ARC
  5
1C8
330
1F
100
AcDbEntity
  8
0
  6
SLD-Сплошная
 62
     7
370
    25
100
AcDbCircle
 10
56.8743734906
 20
151.1396825757
 30
0.0
 40
39.73067366568507
100
AcDbArc
 50
117.4258935693
 51
170.2915093342
  0
ARC
  5
1C9
330
1F
100
AcDbEntity
  8
0
  6
SLD-Сплошная
 62
     7
370
    25
100
AcDbCircle
 10
56.8743734906
 20
151.1396825757
 30
0.0
 40
39.73067366568507
100
AcDbArc
 50
9.7084906658
 51
61.9222516819
  0
LINE
  5
1CA
330
1F
100
AcDbEntity
  8
0
  6
SLD-Сплошная
 62
     7
370
    25
100
AcDbLine
 10
101.3513284164
 20
152.5716324813
 30
0.0
 11
102.4227873591
 21
152.4196945928
 31
0.0
  0
LINE
  5
1CB
330
1F
100
AcDbEntity
  8
0
  6
SLD-Сплошная
 62
     7
370
    25
100
AcDbLine
 10
102.4225306629
 20
149.859252715
 30
0.0
 11
101.3513160777
 21
149.7073494776
 31
0.0
  0
ARC
  5
1CC
330
1F
100
AcDbEntity
  8
0
  6
SLD-Сплошная
 62
     7
370
    25
100
AcDbCircle
 10
102.3523306229
 20
150.3543001414
 30
0.0
 40
0.500000000001936
100
AcDbArc
 50
278.0709978097
 51
328.4267438722
  0
ARC
  5
1CD
330
1F
100
AcDbEntity
  8
0
  6
SLD-Сплошная
 62
     7
370
    25
100
AcDbCircle
 10
101.0743734906
 20
151.1396825757
 30
0.0
 40
2.000000000000612
100
AcDbArc
 50
328.4267438725
 51
360.0
  0
ARC
  5
1CE
330
1F
100
AcDbEntity
  8
0
  6
SLD-Сплошная
 62
     7
370
    25
100
AcDbCircle
 10
101.0743734906
 20
151.1396825757
 30
0.0
 40
2.00000000000168
100
AcDbArc
 50
360.0
 51
31.5545244636
  0
ARC
  5
1CF
330
1F
100
AcDbEntity
  8
0
  6
SLD-Сплошная
 62
     7
370
    25
100
AcDbCircle
 10
102.352587319
 20
151.9246471664
 30
0.0
 40
0.5000000000048501
100
AcDbArc
 50
31.5545244635
 51
81.9290021901
  0
LINE
  5
1D0
330
1F
100
AcDbEntity
  8
0
  6
SLD-Сплошная
 62
     7
370
    25
100
AcDbLine
 10
11.3259596221
 20
152.4196945928
 30
0.0
 11
12.3974185648
 21
152.5716324813
 31
0.0
  0
ARC
  5
1D1
330
1F
100
AcDbEntity
  8
0
  6
SLD-Сплошная
 62
     7
370
    25
100
AcDbCircle
 10
11.3964163583
 20
150.3543001414
 30
0.0
 40
0.5000000000032747
100
AcDbArc
 50
211.5732561276
 51
261.9290021904
  0
LINE
  5
1D2
330
1F
100
AcDbEntity
  8
0
  6
SLD-Сплошная
 62
     7
370
    25
100
AcDbLine
 10
12.3974309035
 20
149.7073494776
 30
0.0
 11
11.3262163183
 21
149.859252715
 31
0.0
  0
ARC
  5
1D3
330
1F
100
AcDbEntity
  8
0
  6
SLD-Сплошная
 62
     7
370
    25
100
AcDbCircle
 10
11.3961596621
 20
151.9246471664
 30
0.0
 40
0.5000000000006717
100
AcDbArc
 50
98.0709978097
 51
148.445475536
  0
ARC
  5
1D4
330
1F
100
AcDbEntity
  8
0
  6
SLD-Сплошная
 62
     7
370
    25
100
AcDbCircle
 10
12.6743734906
 20
151.1396825757
 30
0.0
 40
1.999999999999355
100
AcDbArc
 50
148.4454755363
 51
211.5732561274
  0
ARC
  5
1D5
330
1F
100
AcDbEntity
  8
0
  6
SLD-Сплошная
 62
     7
370
    25
100
AcDbCircle
 10
56.8743734906
 20
151.1396825757
 30
0.0
 40
37.2
100
AcDbArc
 50
282.7476733416
 51
321.8087252995
  0
ARC
  5
1D6
330
1F
100
AcDbEntity
  8
0
  6
SLD-Сплошная
 62
     7
370
    25
100
AcDbCircle
 10
56.8743734906
 20
151.1396825757
 30
0.0
 40
37.2
100
AcDbArc
 50
119.467851337
 51
142.6488334053
  0
LINE
  5
1D7
330
1F
100
AcDbEntity
  8
0
  6
SLD-Сплошная
 62
     7
370
    25
100
AcDbLine
 10
374.6217930256
 20
199.1263969919
 30
0.0
 11
374.1228115904
 21
199.1263969919
 31
0.0
  0
SPLINE
  5
1D8
330
1F
100
AcDbEntity
  8
0
  6
SLD-Сплошная
 62
     7
370
    25
100
AcDbSpline
210
0.0
220
0.0
230
1.0
 70
     8
 71
     3
 72
    16
 73
    12
 74
     0
 42
0.00000001
 43
0.00000001
 40
0.0
 40
0.0
 40
0.0
 40
0.0
 40
0.3023674494155701
 40
0.4120704748356214
 40
0.5012872889074507
 40
0.5424993171205371
 40
0.5846424715613773
 40
0.6306357414232915
 40
0.6832110759921901
 40
0.8165733015036724
 40
1.0
 40
1.0
 40
1.0
 40
1.0
 10
310.6671877732808
 20
152.3924429570528
 30
0.0
 10
310.6630962152953
 20
152.3899443636949
 30
0.0
 10
310.6575201843926
 20
152.3865392466646
 30
0.0
 10
310.6444546111053
 20
152.369956948879
 30
0.0
 10
310.6279281465294
 20
152.354037557057
 30
0.0
 10
310.608592802236
 20
152.3371978347962
 30
0.0
 10
310.5912583009444
 20
152.3226342935803
 30
0.0
 10
310.5709368829579
 20
152.3058786618806
 30
0.0
 10
310.5376411500138
 20
152.2784656638175
 30
0.0
 10
310.4885185132445
 20
152.2372910736072
 30
0.0
 10
310.4580190680471
 20
152.2068617504743
 30
0.0
 10
310.4403593201375
 20
152.1892426045486
 30
0.0
  0
SPLINE
  5
1D9
330
1F
100
AcDbEntity
  8
0
  6
SLD-Сплошная
 62
     7
370
    25
100
AcDbSpline
210
0.0
220
0.0
230
1.0
 70
     8
 71
     3
 72
    16
 73
    12
 74
     0
 42
0.00000001
 43
0.00000001
 40
0.0
 40
0.0
 40
0.0
 40
0.0
 40
0.3023864640930369
 40
0.4120925446717524
 40
0.5013070773503427
 40
0.5425160014739223
 40
0.5846551851721526
 40
0.6306441999620481
 40
0.6832155645602295
 40
0.8165724467992017
 40
1.0
 40
1.0
 40
1.0
 40
1.0
 10
401.9761300137801
 20
149.8864898736303
 30
0.0
 10
401.9802188047877
 20
149.8889865507144
 30
0.0
 10
401.9857910128428
 20
149.8923890244855
 30
0.0
 10
401.9988474353332
 20
149.9089595356853
 30
0.0
 10
402.0153672653485
 20
149.9248684754374
 30
0.0
 10
402.0346975795659
 20
149.9416980052971
 30
0.0
 10
402.0520281902193
 20
149.9562527291635
 30
0.0
 10
402.0723457616422
 20
149.9729983109346
 30
0.0
 10
402.1056366162877
 20
150.0003952660652
 30
0.0
 10
402.1547543377313
 20
150.0415458972391
 30
0.0
 10
402.1852531741935
 20
150.0719567957352
 30
0.0
 10
402.2029129021406
 20
150.0895656050002
 30
0.0
  0
LINE
  5
1DA
330
1F
100
AcDbEntity
  8
0
  6
SLD-Сплошная
 62
     7
370
    25
100
AcDbLine
 10
314.7556390329
 20
149.3061835826
 30
0.0
 11
314.7558429164
 21
149.3082058141
 31
0.0
  0
LINE
  5
1DB
330
1F
100
AcDbEntity
  8
0
  6
SLD-Сплошная
 62
     7
370
    25
100
AcDbLine
 10
314.7576892897
 20
152.9710373978
 30
0.0
 11
314.7574889665
 21
152.973062914
 31
0.0
  0
LINE
  5
1DC
330
1F
100
AcDbEntity
  8
0
  6
SLD-Сплошная
 62
     7
370
    25
100
AcDbLine
 10
397.8877697587
 20
149.3082058141
 30
0.0
 11
397.8879736897
 21
149.306183601
 31
0.0
  0
LINE
  5
1DD
330
1F
100
AcDbEntity
  8
0
  6
SLD-Сплошная
 62
     7
370
    25
100
AcDbLine
 10
368.9217996143
 20
199.5743424035
 30
0.0
 11
343.3217996148
 21
199.5743424035
 31
0.0
  0
LINE
  5
1DE
330
1F
100
AcDbEntity
  8
0
  6
SLD-Сплошная
 62
     7
370
    25
100
AcDbLine
 10
374.6217930253
 20
191.7027259431
 30
0.0
 11
374.6217930253
 21
193.6263969919
 31
0.0
  0
LINE
  5
1DF
330
1F
100
AcDbEntity
  8
0
  6
SLD-Сплошная
 62
     7
370
    25
100
AcDbLine
 10
374.6217930256
 20
199.1263969919
 30
0.0
 11
374.6217930253
 21
193.6263969919
 31
0.0
  0
LINE
  5
1E0
330
1F
100
AcDbEntity
  8
0
  6
SLD-Сплошная
 62
     7
370
    25
100
AcDbLine
 10
368.9217930249
 20
199.1263969919
 30
0.0
 11
374.1217930246
 21
199.1263969919
 31
0.0
  0
LWPOLYLINE
  5
1E1
330
1F
100
AcDbEntity
  8
0
  6
SLD-Сплошная
 62
     7
370
    25
100
AcDbPolyline
 90
        5
 70
   128
 43
0.0
 10
368.9217963196
 20
197.508241215
 10
368.9217930249
 20
196.6820332737
 10
368.9217930249
 20
195.7311558702
 10
368.9217930249
 20
194.6993937633
 10
368.9217930249
 20
194.6815228967
  0
LINE
  5
1E2
330
1F
100
AcDbEntity
  8
0
  6
SLD-Сплошная
 62
     7
370
    25
100
AcDbLine
 10
337.6217996273
 20
193.6263969912
 30
0.0
 11
337.6217996273
 21
191.5198726326
 31
0.0
  0
LINE
  5
1E3
330
1F
100
AcDbEntity
  8
0
  6
SLD-Сплошная
 62
     7
370
    25
100
AcDbLine
 10
337.6217996273
 20
193.6263969912
 30
0.0
 11
337.6217996273
 21
199.1263969919
 31
0.0
  0
LINE
  5
1E4
330
1F
100
AcDbEntity
  8
0
  6
SLD-Сплошная
 62
     7
370
    25
100
AcDbLine
 10
337.6217996273
 20
199.1263969919
 30
0.0
 11
343.321799627
 21
199.1263969919
 31
0.0
  0
LINE
  5
1E5
330
1F
100
AcDbEntity
  8
0
  6
SLD-Сплошная
 62
     7
370
    25
100
AcDbLine
 10
343.3217996209
 20
197.508241215
 30
0.0
 11
343.321799627
 21
194.6815228967
 31
0.0
  0
ARC
  5
1E6
330
1F
100
AcDbEntity
  8
0
  6
SLD-Сплошная
 62
     7
370
    25
100
AcDbCircle
 10
356.3218063376
 20
151.1396825757
 30
0.0
 40
27.25000000000118
100
AcDbArc
 50
270.0
 51
90.0
  0
ARC
  5
1E7
330
1F
100
AcDbEntity
  8
0
  6
SLD-Сплошная
 62
     7
370
    25
100
AcDbCircle
 10
356.3218063376
 20
151.1396825757
 30
0.0
 40
27.25000000000118
100
AcDbArc
 50
90.0
 51
270.0
  0
SPLINE
  5
1E8
330
1F
100
AcDbEntity
  8
0
  6
SLD-Сплошная
 62
     7
370
    25
100
AcDbSpline
210
0.0
220
0.0
230
1.0
 70
     8
 71
     3
 72
    14
 73
    10
 74
     0
 42
0.00000001
 43
0.00000001
 40
0.3314380743403881
 40
0.3314380743403881
 40
0.3314380743403881
 40
0.3314380743403881
 40
0.375
 40
0.375
 40
0.5
 40
0.5
 40
0.625
 40
0.625
 40
0.6684619252613349
 40
0.6684619252613349
 40
0.6684619252613349
 40
0.6684619252613349
 10
402.2256475551072
 20
150.0925685067859
 30
0.0
 10
402.275387890262
 20
150.1734337961271
 30
0.0
 10
402.3193972252166
 20
150.2578204213866
 30
0.0
 10
402.4653801243254
 20
150.5949439254454
 30
0.0
 10
402.521806337534
 20
150.8672504414384
 30
0.0
 10
402.5218063375335
 20
151.4121147099025
 30
0.0
 10
402.4653801243242
 20
151.6844212258984
 30
0.0
 10
402.3194838304665
 20
152.0213447293653
 30
0.0
 10
402.2755899120872
 20
152.1055439063056
 30
0.0
 10
402.2259900150091
 20
152.1862396878172
 30
0.0
  0
SPLINE
  5
1E9
330
1F
100
AcDbEntity
  8
0
  6
SLD-Сплошная
 62
     7
370
    25
100
AcDbSpline
210
0.0
220
0.0
230
1.0
 70
     8
 71
     3
 72
     8
 73
     4
 74
     0
 42
0.00000001
 43
0.00000001
 40
0.0
 40
0.0
 40
0.0
 40
0.0
 40
0.0624782111132421
 40
0.0624782111132421
 40
0.0624782111132421
 40
0.0624782111132421
 10
402.22574918062
 20
150.0925059966935
 30
0.0
 10
402.2251044748189
 20
150.0914569455047
 30
0.0
 10
402.2172849669554
 20
150.0904622792228
 30
0.0
 10
402.202912902338
 20
150.0895656050125
 30
0.0
  0
SPLINE
  5
1EA
330
1F
100
AcDbEntity
  8
0
  6
SLD-Сплошная
 62
     7
370
    25
100
AcDbSpline
210
0.0
220
0.0
230
1.0
 70
     8
 71
     3
 72
    10
 73
     6
 74
     0
 42
0.00000001
 43
0.00000001
 40
0.5
 40
0.5
 40
0.5
 40
0.5
 40
0.625
 40
0.625
 40
0.6685619594231823
 40
0.6685619594231823
 40
0.6685619594231823
 40
0.6685619594231823
 10
310.1218063375604
 20
151.1396825756732
 30
0.0
 10
310.1218063375599
 20
150.867250547582
 30
0.0
 10
310.1782325048744
 20
150.5949441367603
 30
0.0
 10
310.3242153304545
 20
150.2578206604613
 30
0.0
 10
310.3682246743316
 20
150.1734339922181
 30
0.0
 10
310.4179650248262
 20
150.092568661238
 30
0.0
  0
SPLINE
  5
1EB
330
1F
100
AcDbEntity
  8
0
  6
SLD-Сплошная
 62
     7
370
    25
100
AcDbSpline
210
0.0
220
0.0
230
1.0
 70
     8
 71
     3
 72
    10
 73
     6
 74
     0
 42
0.00000001
 43
0.00000001
 40
0.331538074672983
 40
0.331538074672983
 40
0.331538074672983
 40
0.331538074672983
 40
0.375
 40
0.375
 40
0.5
 40
0.5
 40
0.5
 40
0.5
 10
310.4176226599144
 20
152.1862396875145
 30
0.0
 10
310.3680227628064
 20
152.1055439059228
 30
0.0
 10
310.3241288444099
 20
152.0213447288998
 30
0.0
 10
310.1782325506968
 20
151.6844212254846
 30
0.0
 10
310.1218063375775
 20
151.4121147096949
 30
0.0
 10
310.121806337577
 20
151.1396825756732
 30
0.0
  0
SPLINE
  5
1EC
330
1F
100
AcDbEntity
  8
0
  6
SLD-Сплошная
 62
     7
370
    25
100
AcDbSpline
210
0.0
220
0.0
230
1.0
 70
     8
 71
     3
 72
     8
 73
     4
 74
     0
 42
0.00000001
 43
0.00000001
 40
0.0
 40
0.0
 40
0.0
 40
0.0
 40
0.0624782148711781
 40
0.0624782148711781
 40
0.0624782148711781
 40
0.0624782148711781
 10
310.4175212329482
 20
152.1863020300083
 30
0.0
 10
310.4181653662336
 20
152.1873509181823
 30
0.0
 10
310.4259854327607
 20
152.1883456576726
 30
0.0
 10
310.4403593199331
 20
152.1892426045358
 30
0.0
  0
SPLINE
  5
1ED
330
1F
100
AcDbEntity
  8
0
  6
SLD-Сплошная
 62
     7
370
    25
100
AcDbSpline
210
0.0
220
0.0
230
1.0
 70
    24
 71
     3
 72
    23
 73
    19
 74
     0
 42
0.00000001
 43
0.00000001
 40
0.0
 40
0.0
 40
0.0
 40
0.0
 40
0.0356347150391771
 40
0.0709930447982256
 40
0.1060727117636472
 40
0.1408738173303145
 40
0.1756116890897476
 40
0.2102669772352325
 40
0.2447034634501226
 40
0.2876793172587451
 40
0.3717324692650488
 40
0.4492672790153724
 40
0.4990630610591387
 40
0.6781987281892795
 40
0.8183388112266053
 40
0.918673784522264
 40
0.97923872532812
 40
1.0
 40
1.0
 40
1.0
 40
1.0
 10
401.8702202060348
 20
152.4196945928195
 30
0.0
 10
401.8693976330425
 20
152.4198112375165
 30
0.0
 10
401.8677588669902
 20
152.4200436222064
 30
0.0
 10
401.8548734632097
 20
152.4218708327167
 30
0.0
 10
401.8349988267411
 20
152.4246891491056
 30
0.0
 10
401.8077660259117
 20
152.4285508876105
 30
0.0
 10
401.773984560004
 20
152.4333412574474
 30
0.0
 10
401.734838597488
 20
152.4388923379894
 30
0.0
 10
401.6865606192719
 20
152.4457383810618
 30
0.0
 10
401.614000026782
 20
152.4560278123882
 30
0.0
 10
401.5117885244278
 20
152.4705218813849
 30
0.0
 10
401.3979280791665
 20
152.4866678249646
 30
0.0
 10
401.2274145570914
 20
152.5108474397589
 30
0.0
 10
401.016647090211
 20
152.5407352521607
 30
0.0
 10
400.7805956823599
 20
152.5742084456315
 30
0.0
 10
400.6114873783854
 20
152.5981887939272
 30
0.0
 10
400.5097733370274
 20
152.6126123206328
 30
0.0
 10
400.4643123924382
 20
152.6190588951631
 30
0.0
 10
400.452706944528
 20
152.6207046019469
 30
0.0
  0
SPLINE
  5
1EE
330
1F
100
AcDbEntity
  8
0
  6
SLD-Сплошная
 62
     7
370
    25
100
AcDbSpline
210
0.0
220
0.0
230
1.0
 70
     8
 71
     3
 72
     8
 73
     4
 74
     0
 42
0.00000001
 43
0.00000001
 40
0.0
 40
0.0
 40
0.0
 40
0.0
 40
1.0
 40
1.0
 40
1.0
 40
1.0
 10
401.8702202060369
 20
152.4196945928216
 30
0.0
 10
402.0153021868663
 20
152.3991212895004
 30
0.0
 10
402.1494090802748
 20
152.3111693890206
 30
0.0
 10
402.2260914421623
 20
152.1863020300101
 30
0.0
  0
SPLINE
  5
1EF
330
1F
100
AcDbEntity
  8
0
  6
SLD-Сплошная
 62
     7
370
    25
100
AcDbSpline
210
0.0
220
0.0
230
1.0
 70
    24
 71
     3
 72
    21
 73
    17
 74
     0
 42
0.00000001
 43
0.00000001
 40
0.0
 40
0.0
 40
0.0
 40
0.0
 40
0.035634329952235
 40
0.0709923909156403
 40
0.1060715141681126
 40
0.1408715411917646
 40
0.1756086608301626
 40
0.2102634750563216
 40
0.2446994260507857
 40
0.2876727902418261
 40
0.3717287744005787
 40
0.4492605411543841
 40
0.4990576184404503
 40
0.6655363240691616
 40
0.832747901802369
 40
1.0
 40
1.0
 40
1.0
 40
1.0
 10
310.7736491652285
 20
149.8592527150402
 30
0.0
 10
310.7744717247412
 20
149.8591360722548
 30
0.0
 10
310.7761104665545
 20
149.8589036910024
 30
0.0
 10
310.7889951193201
 20
149.8570765869886
 30
0.0
 10
310.8088679737198
 20
149.8542585233046
 30
0.0
 10
310.8360981508397
 20
149.8503971568539
 30
0.0
 10
310.8698760109446
 20
149.8456072983377
 30
0.0
 10
310.9090172678906
 20
149.840056885069
 30
0.0
 10
310.9572880310627
 20
149.8332118651249
 30
0.0
 10
311.0298388903353
 20
149.8229238140141
 30
0.0
 10
311.1320336208145
 20
149.8084321233446
 30
0.0
 10
311.2458765794738
 20
149.7922886594482
 30
0.0
 10
311.4093159615076
 20
149.7691121907945
 30
0.0
 10
311.6280169289076
 20
149.7380993709164
 30
0.0
 10
311.90994983258
 20
149.6981199667871
 30
0.0
 10
312.097257372001
 20
149.6715588818017
 30
0.0
 10
312.1909224879189
 20
149.6582767303637
 30
0.0
  0
SPLINE
  5
1F0
330
1F
100
AcDbEntity
  8
0
  6
SLD-Сплошная
 62
     7
370
    25
100
AcDbSpline
210
0.0
220
0.0
230
1.0
 70
     8
 71
     3
 72
    10
 73
     6
 74
     0
 42
0.00000001
 43
0.00000001
 40
0.0
 40
0.0
 40
0.0
 40
0.0
 40
0.5
 40
0.5
 40
1.0
 40
1.0
 40
1.0
 40
1.0
 10
310.4178634944887
 20
150.0925059966979
 30
0.0
 10
310.456210820086
 20
150.0301080665745
 30
0.0
 10
310.5084608900733
 20
149.9763071559198
 30
0.0
 10
310.630960772171
 20
149.89599616576
 30
0.0
 10
310.7011351490593
 20
149.8695355416276
 30
0.0
 10
310.7736491652284
 20
149.8592527150402
 30
0.0
  0
SPLINE
  5
1F1
330
1F
100
AcDbEntity
  8
0
  6
SLD-Сплошная
 62
     7
370
    25
100
AcDbSpline
210
0.0
220
0.0
230
1.0
 70
     8
 71
     3
 72
    34
 73
    30
 74
     0
 42
0.00000001
 43
0.00000001
 40
0.0
 40
0.0
 40
0.0
 40
0.0
 40
0.0019539593387725
 40
0.0039082174737748
 40
0.007817609537629
 40
0.0156397526228961
 40
0.031296320117599
 40
0.062649371752202
 40
0.1254431002533527
 40
0.250869082255528
 40
0.3756684651525972
 40
0.4997465444458451
 40
0.4998073637837067
 40
0.4998681841251162
 40
0.4999898262517098
 40
0.5002331213397215
 40
0.5007197546457974
 40
0.5016931921124769
 40
0.5036407371623864
 40
0.5075384022209836
 40
0.5153432018585905
 40
0.5309842622763306
 40
0.5623446766561858
 40
0.6250651039588723
 40
0.6874507924028411
 40
0.7498849782581769
 40
0.8333462365442637
 40
0.9165059351621376
 40
1.0
 40
1.0
 40
1.0
 40
1.0
 10
312.1909057305803
 20
152.6207046019462
 30
0.0
 10
312.1898102122468
 20
152.6205492523235
 30
0.0
 10
312.1876190080548
 20
152.6202385293223
 30
0.0
 10
312.1832359952855
 20
152.6196169976099
 30
0.0
 10
312.1755630196575
 20
152.618528933586
 30
0.0
 10
312.1602080393963
 20
152.6163515238861
 30
0.0
 10
312.1294668320011
 20
152.611992235742
 30
0.0
 10
312.0678958962873
 20
152.6032607766107
 30
0.0
 10
311.9446755629421
 20
152.5857808064627
 30
0.0
 10
311.7682864316399
 20
152.5607436467089
 30
0.0
 10
311.5559225863464
 20
152.5306518722845
 30
0.0
 10
311.4143090209282
 20
152.5105795579002
 30
0.0
 10
311.3445196545317
 20
152.5006830984496
 30
0.0
 10
311.3443826693529
 20
152.5006636733111
 30
0.0
 10
311.3441433022655
 20
152.5006297299385
 30
0.0
 10
311.3436643002591
 20
152.5005618052143
 30
0.0
 10
311.3427064257713
 20
152.5004259741325
 30
0.0
 10
311.3407903535222
 20
152.5001542661276
 30
0.0
 10
311.3369576051629
 20
152.4996107644873
 30
0.0
 10
311.3292899278746
 20
152.4985234519919
 30
0.0
 10
311.3139514914497
 20
152.4963483899804
 30
0.0
 10
311.2833009768236
 20
152.492002003677
 30
0.0
 10
311.222400730219
 20
152.4833660639239
 30
0.0
 10
311.1372890011848
 20
152.4712968227417
 30
0.0
 10
311.0407035921912
 20
152.45760056009
 30
0.0
 10
310.9427072759485
 20
152.4437042241924
 30
0.0
 10
310.8536896091275
 20
152.4310811027655
 30
0.0
 10
310.7864339740213
 20
152.4215439392045
 30
0.0
 10
310.7777454481394
 20
152.420311865605
 30
0.0
 10
310.773392469075
 20
152.4196945928182
 30
0.0
  0
SPLINE
  5
1F2
330
1F
100
AcDbEntity
  8
0
  6
SLD-Сплошная
 62
     7
370
    25
100
AcDbSpline
210
0.0
220
0.0
230
1.0
 70
     8
 71
     3
 72
    28
 73
    24
 74
     0
 42
0.00000001
 43
0.00000001
 40
0.0
 40
0.0
 40
0.0
 40
0.0
 40
0.125488211624381
 40
0.2508676945367579
 40
0.3755206783424628
 40
0.4997044250126393
 40
0.4997652488136735
 40
0.4998260736194015
 40
0.4999477258455791
 40
0.5001910411331224
 40
0.5006777148396302
 40
0.5016512331126393
 40
0.5035989397961567
 40
0.5074969281995482
 40
0.5153023747899224
 40
0.5309447298471931
 40
0.5623077350279352
 40
0.6250333621659355
 40
0.6874243368927208
 40
0.749863925335181
 40
0.8333323689253537
 40
0.9164989762713457
 40
0.9999999999999999
 40
0.9999999999999999
 40
0.9999999999999999
 40
0.9999999999999999
 10
400.4526901871906
 20
149.6582767303609
 30
0.0
 10
400.5231093140549
 20
149.6682602108219
 30
0.0
 10
400.6638865534391
 20
149.6882185216008
 30
0.0
 10
400.8750897516144
 20
149.718211294052
 30
0.0
 10
401.0875212636339
 20
149.74829779642
 30
0.0
 10
401.2290276020525
 20
149.7683650062364
 30
0.0
 10
401.2989248581342
 20
149.7782767639048
 30
0.0
 10
401.2990616652038
 20
149.7782961637871
 30
0.0
 10
401.2993010815924
 20
149.7783301141506
 30
0.0
 10
401.2997799276596
 20
149.7783980167621
 30
0.0
 10
401.30073767105
 20
149.7785338292535
 30
0.0
 10
401.3026533528255
 20
149.7788054818874
 30
0.0
 10
401.3064854104906
 20
149.7793488855839
 30
0.0
 10
401.3141516399419
 20
149.7804359927692
 30
0.0
 10
401.3294872196983
 20
149.7826106496915
 30
0.0
 10
401.3601319734528
 20
149.7869562190762
 30
0.0
 10
401.4210207742598
 20
149.7955905357619
 30
0.0
 10
401.5061166122417
 20
149.8076575235169
 30
0.0
 10
401.6026852144291
 20
149.8213514028857
 30
0.0
 10
401.7006663438181
 20
149.8352455852182
 30
0.0
 10
401.7896730792889
 20
149.8478671565253
 30
0.0
 10
401.8569228780904
 20
149.8574034924724
 30
0.0
 10
401.8656108218693
 20
149.858635483527
 30
0.0
 10
401.8699635098806
 20
149.8592527150411
 30
0.0
  0
LINE
  5
1F3
330
1F
100
AcDbEntity
  8
0
  6
SLD-Сплошная
 62
     7
370
    25
100
AcDbLine
 10
389.8601584565
 20
149.8166988007
 30
0.0
 11
397.881819932
 21
149.3042547655
 31
0.0
  0
SPLINE
  5
1F4
330
1F
100
AcDbEntity
  8
0
  6
SLD-Сплошная
 62
     7
370
    25
100
AcDbSpline
210
0.0
220
0.0
230
1.0
 70
     8
 71
     3
 72
     8
 73
     4
 74
     0
 42
0.00000001
 43
0.00000001
 40
0.0
 40
0.0
 40
0.0
 40
0.0
 40
1.0
 40
1.0
 40
1.0
 40
1.0
 10
389.4170013459109
 20
149.8480023954305
 30
0.0
 10
389.5646506788303
 20
149.8365753548764
 30
0.0
 10
389.712372794529
 20
149.8261397227369
 30
0.0
 10
389.8601584565357
 20
149.8166988006535
 30
0.0
  0
LINE
  5
1F5
330
1F
100
AcDbEntity
  8
0
  6
SLD-Сплошная
 62
     7
370
    25
100
AcDbLine
 10
397.8799654522
 20
152.9749919169
 30
0.0
 11
389.8601584565
 21
152.4626663507
 31
0.0
  0
LINE
  5
1F6
330
1F
100
AcDbEntity
  8
0
  6
SLD-Сплошная
 62
     7
370
    25
100
AcDbLine
 10
322.7834542186
 20
152.4626663507
 30
0.0
 11
314.7636472229
 21
152.9749919169
 31
0.0
  0
SPLINE
  5
1F7
330
1F
100
AcDbEntity
  8
0
  6
SLD-Сплошная
 62
     7
370
    25
100
AcDbSpline
210
0.0
220
0.0
230
1.0
 70
     8
 71
     3
 72
     8
 73
     4
 74
     0
 42
0.00000001
 43
0.00000001
 40
0.0
 40
0.0
 40
0.0
 40
0.0
 40
1.0
 40
1.0
 40
1.0
 40
1.0
 10
322.7834542185893
 20
149.8166988006519
 30
0.0
 10
322.9312398805907
 20
149.8261397227351
 30
0.0
 10
323.0789619962841
 20
149.8365753548744
 30
0.0
 10
323.2266113291982
 20
149.8480023954283
 30
0.0
  0
LINE
  5
1F8
330
1F
100
AcDbEntity
  8
0
  6
SLD-Сплошная
 62
     7
370
    25
100
AcDbLine
 10
314.7617927432
 20
149.3042547656
 30
0.0
 11
322.7834542186
 21
149.8166988007
 31
0.0
  0
ARC
  5
1F9
330
1F
100
AcDbEntity
  8
0
  6
SLD-Сплошная
 62
     7
370
    25
100
AcDbCircle
 10
397.9118417405
 20
152.4760090492
 30
0.0
 40
0.5000000000001357
100
AcDbArc
 50
81.9290021905
 51
93.6552324834
  0
SPLINE
  5
1FA
330
1F
100
AcDbEntity
  8
0
  6
SLD-Сплошная
 62
     7
370
    25
100
AcDbSpline
210
0.0
220
0.0
230
1.0
 70
    24
 71
     3
 72
    12
 73
     8
 74
     0
 42
0.00000001
 43
0.00000001
 40
0.0
 40
0.0
 40
0.0
 40
0.0
 40
0.5
 40
0.5
 40
0.75
 40
0.75
 40
1.0
 40
1.0
 40
1.0
 40
1.0
 10
400.452706944533
 20
152.6207046019444
 30
0.0
 10
399.7714673861979
 20
152.7173075569654
 30
0.0
 10
399.1322658122218
 20
152.8079493292172
 30
0.0
 10
398.4598587424948
 20
152.903299796048
 30
0.0
 10
398.2826097953307
 20
152.9284345256166
 30
0.0
 10
398.0436702815732
 20
152.9623172660059
 30
0.0
 10
397.9820417805623
 20
152.9710564756405
 30
0.0
 10
397.9820417805627
 20
152.9710564756407
 30
0.0
  0
SPLINE
  5
1FB
330
1F
100
AcDbEntity
  8
0
  6
SLD-Сплошная
 62
     7
370
    25
100
AcDbSpline
210
0.0
220
0.0
230
1.0
 70
    24
 71
     3
 72
    12
 73
     8
 74
     0
 42
0.00000001
 43
0.00000001
 40
0.0
 40
0.0
 40
0.0
 40
0.0
 40
0.5
 40
0.5
 40
0.75
 40
0.75
 40
1.0
 40
1.0
 40
1.0
 40
1.0
 10
312.1909224879182
 20
149.6582767303632
 30
0.0
 10
312.8717808985355
 20
149.5617278238685
 30
0.0
 10
313.5104828971793
 20
149.4711568937346
 30
0.0
 10
314.1823275558337
 20
149.3758861794254
 30
0.0
 10
314.3594195208
 20
149.3507737106697
 30
0.0
 10
314.5981448986886
 20
149.3169213357442
 30
0.0
 10
314.6597164147852
 20
149.3081902068392
 30
0.0
 10
314.6597164147851
 20
149.3081902068391
 30
0.0
  0
ARC
  5
1FC
330
1F
100
AcDbEntity
  8
0
  6
SLD-Сплошная
 62
     7
370
    25
100
AcDbCircle
 10
314.7299164548
 20
149.8032376332
 30
0.0
 40
0.5000000000001
100
AcDbArc
 50
261.9290021903
 51
273.6552324832
  0
SPLINE
  5
1FD
330
1F
100
AcDbEntity
  8
0
  6
SLD-Сплошная
 62
     7
370
    25
100
AcDbSpline
210
0.0
220
0.0
230
1.0
 70
    24
 71
     3
 72
    12
 73
     8
 74
     0
 42
0.00000001
 43
0.00000001
 40
0.0
 40
0.0
 40
0.0
 40
0.0
 40
0.25
 40
0.25
 40
0.5
 40
0.5
 40
1.0
 40
1.0
 40
1.0
 40
1.0
 10
314.6615708945503
 20
152.9710564756397
 30
0.0
 10
314.6615708945495
 20
152.9710564756391
 30
0.0
 10
314.5999423935394
 20
152.962317266005
 30
0.0
 10
314.3610028797804
 20
152.9284345256166
 30
0.0
 10
314.1837539326198
 20
152.9032997960475
 30
0.0
 10
313.5113468628924
 20
152.8079493292194
 30
0.0
 10
312.8721452889069
 20
152.7173075569623
 30
0.0
 10
312.1909057305792
 20
152.6207046019454
 30
0.0
  0
ARC
  5
1FE
330
1F
100
AcDbEntity
  8
0
  6
SLD-Сплошная
 62
     7
370
    25
100
AcDbCircle
 10
314.7317709346
 20
152.4760090492
 30
0.0
 40
0.5000000000000868
100
AcDbArc
 50
86.3447675167
 51
98.0709978096
  0
SPLINE
  5
1FF
330
1F
100
AcDbEntity
  8
0
  6
SLD-Сплошная
 62
     7
370
    25
100
AcDbSpline
210
0.0
220
0.0
230
1.0
 70
    24
 71
     3
 72
    12
 73
     8
 74
     0
 42
0.00000001
 43
0.00000001
 40
0.0
 40
0.0
 40
0.0
 40
0.0
 40
0.25
 40
0.25
 40
0.5
 40
0.5
 40
1.0
 40
1.0
 40
1.0
 40
1.0
 10
397.9838962603233
 20
149.3081902068367
 30
0.0
 10
397.9838962603218
 20
149.3081902068355
 30
0.0
 10
398.0454677764187
 20
149.3169213357435
 30
0.0
 10
398.2841931543045
 20
149.3507737106688
 30
0.0
 10
398.4612851192751
 20
149.375886179426
 30
0.0
 10
399.1331297779315
 20
149.4711568937359
 30
0.0
 10
399.7718317765743
 20
149.5617278238761
 30
0.0
 10
400.4526901871921
 20
149.6582767303619
 30
0.0
  0
ARC
  5
200
330
1F
100
AcDbEntity
  8
0
  6
SLD-Сплошная
 62
     7
370
    25
100
AcDbCircle
 10
397.9136962203
 20
149.8032376332
 30
0.0
 40
0.5000000000001004
100
AcDbArc
 50
266.3447675168
 51
278.0709978094
  0
SPLINE
  5
201
330
1F
100
AcDbEntity
  8
0
  6
SLD-Сплошная
 62
     7
370
    25
100
AcDbSpline
210
0.0
220
0.0
230
1.0
 70
     8
 71
     3
 72
    10
 73
     6
 74
     0
 42
0.00000001
 43
0.00000001
 40
0.0
 40
0.0
 40
0.0
 40
0.0
 40
0.5
 40
0.5
 40
1.0
 40
1.0
 40
1.0
 40
1.0
 10
315.0788890629325
 20
149.3245116685468
 30
0.0
 10
315.2525162930299
 20
149.3355796475262
 30
0.0
 10
315.4254676999662
 20
149.3171550608753
 30
0.0
 10
315.7680809815635
 20
149.2625575662232
 30
0.0
 10
315.9380474395338
 20
149.2246030532675
 30
0.0
 10
316.1076041183362
 20
149.1894994355007
 30
0.0
  0
SPLINE
  5
202
330
1F
100
AcDbEntity
  8
0
  6
SLD-Сплошная
 62
     7
370
    25
100
AcDbSpline
210
0.0
220
0.0
230
1.0
 70
     8
 71
     3
 72
    17
 73
    13
 74
     0
 42
0.00000001
 43
0.00000001
 40
0.0
 40
0.0
 40
0.0
 40
0.0
 40
0.0616726530807659
 40
0.1234969914829503
 40
0.1859988773031961
 40
0.2496874055737813
 40
0.3738952238938391
 40
0.4995165702673675
 40
0.6251972233199543
 40
0.749531218768355
 40
0.8759958220480194
 40
1.0
 40
1.0
 40
1.0
 40
1.0
 10
327.7473131203799
 20
151.1396825756708
 30
0.0
 10
327.7465038998639
 20
151.1097487166681
 30
0.0
 10
327.744883468535
 20
151.0498073756417
 30
0.0
 10
327.7318567534642
 20
150.960315627879
 30
0.0
 10
327.7110652535926
 20
150.8714033228902
 30
0.0
 10
327.6728020345022
 20
150.7559884227962
 30
0.0
 10
327.6071584329248
 20
150.6180063235555
 30
0.0
 10
327.502277390089
 20
150.4683352875676
 30
0.0
 10
327.3753827512552
 20
150.3366433491274
 30
0.0
 10
327.2278836936953
 20
150.2284634382165
 30
0.0
 10
327.0654055647527
 20
150.1443565719304
 30
0.0
 10
326.9473273847202
 20
150.1155124329158
 30
0.0
 10
326.8888682523006
 20
150.1012320354561
 30
0.0
  0
SPLINE
  5
203
330
1F
100
AcDbEntity
  8
0
  6
SLD-Сплошная
 62
     7
370
    25
100
AcDbSpline
210
0.0
220
0.0
230
1.0
 70
     8
 71
     3
 72
    17
 73
    13
 74
     0
 42
0.00000001
 43
0.00000001
 40
0.0
 40
0.0
 40
0.0
 40
0.0
 40
0.0619317794770349
 40
0.1239646264673892
 40
0.1866355033659505
 40
0.2504653188395567
 40
0.3746149560141979
 40
0.5003235463447647
 40
0.6258117546981559
 40
0.7501607023642336
 40
0.876314507535963
 40
1.0
 40
1.0
 40
1.0
 40
1.0
 10
385.7547444228066
 20
150.1012320354571
 30
0.0
 10
385.725427881941
 20
150.1075448674749
 30
0.0
 10
385.6667469580533
 20
150.1201808335274
 30
0.0
 10
385.5811396780299
 20
150.1495965570043
 30
0.0
 10
385.4976189238436
 20
150.1866228137072
 30
0.0
 10
385.3915262192239
 20
150.2458162056625
 30
0.0
 10
385.2685313064507
 20
150.3363063454256
 30
0.0
 10
385.1416521059664
 20
150.4676557620504
 30
0.0
 10
385.0365149278611
 20
150.6173543422813
 30
0.0
 10
384.9582469185419
 20
150.7827147177054
 30
0.0
 10
384.90612163268
 20
150.958164964794
 30
0.0
 10
384.8995519454166
 20
151.0795765380349
 30
0.0
 10
384.8962995547311
 20
151.1396825756728
 30
0.0
  0
SPLINE
  5
204
330
1F
100
AcDbEntity
  8
0
  6
SLD-Сплошная
 62
     7
370
    25
100
AcDbSpline
210
0.0
220
0.0
230
1.0
 70
     8
 71
     3
 72
    10
 73
     6
 74
     0
 42
0.00000001
 43
0.00000001
 40
0.0
 40
0.0
 40
0.0
 40
0.0
 40
0.5
 40
0.5
 40
1.0
 40
1.0
 40
1.0
 40
1.0
 10
397.5647234550709
 20
149.3245115482156
 30
0.0
 10
397.3911010046749
 20
149.335522293631
 30
0.0
 10
397.2181585501742
 20
149.3170729147797
 30
0.0
 10
396.875482100025
 20
149.2628235437614
 30
0.0
 10
396.705444556046
 20
149.2251957956473
 30
0.0
 10
396.5360085567587
 20
149.1894994355062
 30
0.0
  0
ARC
  5
205
330
1F
100
AcDbEntity
  8
0
  6
SLD-Сплошная
 62
     7
370
    25
100
AcDbCircle
 10
356.3218063376
 20
151.1396825757
 30
0.0
 40
42.5000000000001
100
AcDbArc
 50
326.0058729902
 51
357.683815552
  0
LINE
  5
206
330
1F
100
AcDbEntity
  8
0
  6
SLD-Сплошная
 62
     7
370
    25
100
AcDbLine
 10
392.8818255192
 20
125.770114242
 30
0.0
 11
391.5583390418
 21
127.3775959042
 31
0.0
  0
ARC
  5
207
330
1F
100
AcDbEntity
  8
0
  6
SLD-Сплошная
 62
     7
370
    25
100
AcDbCircle
 10
356.3218063376
 20
151.1396825757
 30
0.0
 40
44.5000000000001
100
AcDbArc
 50
322.7573848006
 51
325.2426151994
  0
LINE
  5
208
330
1F
100
AcDbEntity
  8
0
  6
SLD-Сплошная
 62
     7
370
    25
100
AcDbLine
 10
391.7473668587
 20
124.2086658522
 30
0.0
 11
389.8095811357
 21
124.970637139
 31
0.0
  0
ARC
  5
209
330
1F
100
AcDbEntity
  8
0
  6
SLD-Сплошная
 62
     7
370
    25
100
AcDbCircle
 10
356.3218063376
 20
151.1396825757
 30
0.0
 40
42.50000000000004
100
AcDbArc
 50
290.0058729902
 51
321.9941270098
  0
LINE
  5
20A
330
1F
100
AcDbEntity
  8
0
  6
SLD-Сплошная
 62
     7
370
    25
100
AcDbLine
 10
370.9876250466
 20
109.1258305553
 30
0.0
 11
370.8617560089
 21
111.2042363712
 31
0.0
  0
ARC
  5
20B
330
1F
100
AcDbEntity
  8
0
  6
SLD-Сплошная
 62
     7
370
    25
100
AcDbCircle
 10
356.3218063376
 20
151.1396825757
 30
0.0
 40
44.50000000000014
100
AcDbArc
 50
286.7573848006
 51
289.2426151994
  0
LINE
  5
20C
330
1F
100
AcDbEntity
  8
0
  6
SLD-Сплошная
 62
     7
370
    25
100
AcDbLine
 10
369.1520323751
 20
108.529410342
 30
0.0
 11
368.0322062788
 21
110.2848599324
 31
0.0
  0
ARC
  5
20D
330
1F
100
AcDbEntity
  8
0
  6
SLD-Сплошная
 62
     7
370
    25
100
AcDbCircle
 10
356.3218063376
 20
151.1396825757
 30
0.0
 40
42.49999999999991
100
AcDbArc
 50
254.0058729902
 51
285.9941270098
  0
LINE
  5
20E
330
1F
100
AcDbEntity
  8
0
  6
SLD-Сплошная
 62
     7
370
    25
100
AcDbLine
 10
343.4915803
 20
108.529410342
 30
0.0
 11
344.6114063963
 21
110.2848599324
 31
0.0
  0
ARC
  5
20F
330
1F
100
AcDbEntity
  8
0
  6
SLD-Сплошная
 62
     7
370
    25
100
AcDbCircle
 10
356.3218063376
 20
151.1396825757
 30
0.0
 40
44.50000000000014
100
AcDbArc
 50
250.7573848006
 51
253.2426151994
  0
LINE
  5
210
330
1F
100
AcDbEntity
  8
0
  6
SLD-Сплошная
 62
     7
370
    25
100
AcDbLine
 10
341.6559876285
 20
109.1258305553
 30
0.0
 11
341.7818566662
 21
111.2042363712
 31
0.0
  0
ARC
  5
211
330
1F
100
AcDbEntity
  8
0
  6
SLD-Сплошная
 62
     7
370
    25
100
AcDbCircle
 10
356.3218063376
 20
151.1396825757
 30
0.0
 40
42.49999999999986
100
AcDbArc
 50
218.0058729902
 51
249.9941270098
  0
LINE
  5
212
330
1F
100
AcDbEntity
  8
0
  6
SLD-Сплошная
 62
     7
370
    25
100
AcDbLine
 10
320.8962458164
 20
124.2086658522
 30
0.0
 11
322.8340315394
 21
124.970637139
 31
0.0
  0
ARC
  5
213
330
1F
100
AcDbEntity
  8
0
  6
SLD-Сплошная
 62
     7
370
    25
100
AcDbCircle
 10
356.3218063376
 20
151.1396825757
 30
0.0
 40
44.50000000000014
100
AcDbArc
 50
214.7573848006
 51
217.2426151994
  0
LINE
  5
214
330
1F
100
AcDbEntity
  8
0
  6
SLD-Сплошная
 62
     7
370
    25
100
AcDbLine
 10
319.7617871559
 20
125.770114242
 30
0.0
 11
321.0852736333
 21
127.3775959042
 31
0.0
  0
ARC
  5
215
330
1F
100
AcDbEntity
  8
0
  6
SLD-Сплошная
 62
     7
370
    25
100
AcDbCircle
 10
356.3218063376
 20
151.1396825757
 30
0.0
 40
42.4999999999998
100
AcDbArc
 50
182.316184448
 51
213.9941270098
  0
LINE
  5
216
330
1F
100
AcDbEntity
  8
0
  6
SLD-Сплошная
 62
     7
370
    25
100
AcDbLine
 10
369.1520323751
 20
193.7499548093
 30
0.0
 11
368.0322062788
 21
191.994505219
 31
0.0
  0
ARC
  5
217
330
1F
100
AcDbEntity
  8
0
  6
SLD-Сплошная
 62
     7
370
    25
100
AcDbCircle
 10
356.3218063376
 20
151.1396825757
 30
0.0
 40
44.50000000000009
100
AcDbArc
 50
70.7573848006
 51
73.2426151994
  0
LINE
  5
218
330
1F
100
AcDbEntity
  8
0
  6
SLD-Сплошная
 62
     7
370
    25
100
AcDbLine
 10
370.9876250466
 20
193.1535345961
 30
0.0
 11
370.8617560089
 21
191.0751287802
 31
0.0
  0
ARC
  5
219
330
1F
100
AcDbEntity
  8
0
  6
SLD-Сплошная
 62
     7
370
    25
100
AcDbCircle
 10
356.3218063376
 20
151.1396825757
 30
0.0
 40
42.50000000000021
100
AcDbArc
 50
38.0058729902
 51
69.9941270098
  0
LINE
  5
21A
330
1F
100
AcDbEntity
  8
0
  6
SLD-Сплошная
 62
     7
370
    25
100
AcDbLine
 10
391.7473668587
 20
178.0706992992
 30
0.0
 11
389.8095811357
 21
177.3087280124
 31
0.0
  0
ARC
  5
21B
330
1F
100
AcDbEntity
  8
0
  6
SLD-Сплошная
 62
     7
370
    25
100
AcDbCircle
 10
356.3218063376
 20
151.1396825757
 30
0.0
 40
44.50000000000009
100
AcDbArc
 50
34.7573848006
 51
37.2426151994
  0
LINE
  5
21C
330
1F
100
AcDbEntity
  8
0
  6
SLD-Сплошная
 62
     7
370
    25
100
AcDbLine
 10
392.8818255192
 20
176.5092509094
 30
0.0
 11
391.5583390418
 21
174.9017692472
 31
0.0
  0
ARC
  5
21D
330
1F
100
AcDbEntity
  8
0
  6
SLD-Сплошная
 62
     7
370
    25
100
AcDbCircle
 10
356.3218063376
 20
151.1396825757
 30
0.0
 40
42.50000000000014
100
AcDbArc
 50
2.3156668224
 51
33.9941270098
  0
SPLINE
  5
21E
330
1F
100
AcDbEntity
  8
0
  6
SLD-Сплошная
 62
     7
370
    25
100
AcDbSpline
210
0.0
220
0.0
230
1.0
 70
     8
 71
     3
 72
    10
 73
     6
 74
     0
 42
0.00000001
 43
0.00000001
 40
0.0
 40
0.0
 40
0.0
 40
0.0
 40
0.5
 40
0.5
 40
1.0
 40
1.0
 40
1.0
 40
1.0
 10
397.5648330860732
 20
152.9548605596781
 30
0.0
 10
397.3911917959047
 20
152.9438340351043
 30
0.0
 10
397.2182311592606
 20
152.9622835733178
 30
0.0
 10
396.8755177348669
 20
153.0165332387414
 30
0.0
 10
396.7054619712506
 20
153.0541637027494
 30
0.0
 10
396.5360085567187
 20
153.0898657158381
 30
0.0
  0
SPLINE
  5
21F
330
1F
100
AcDbEntity
  8
0
  6
SLD-Сплошная
 62
     7
370
    25
100
AcDbSpline
210
0.0
220
0.0
230
1.0
 70
     8
 71
     3
 72
    17
 73
    13
 74
     0
 42
0.00000001
 43
0.00000001
 40
0.0
 40
0.0
 40
0.0
 40
0.0
 40
0.0616665966929745
 40
0.1234862562495982
 40
0.1859861904235
 40
0.249676696784952
 40
0.3738611362990351
 40
0.4994950694492817
 40
0.6251462813688055
 40
0.749507339712334
 40
0.8759561756138815
 40
1.0
 40
1.0
 40
1.0
 40
1.0
 10
384.8962995547311
 20
151.1396825756728
 30
0.0
 10
384.897108467564
 20
151.1696137350895
 30
0.0
 10
384.8987283010352
 20
151.2295503461526
 30
0.0
 10
384.9117512168198
 20
151.3190370925145
 30
0.0
 10
384.9325387998349
 20
151.4079487539994
 30
0.0
 10
384.9707934699017
 20
151.5233556017119
 30
0.0
 10
385.036427161044
 20
151.6613387236192
 30
0.0
 10
385.141289804108
 20
151.8110011744467
 30
0.0
 10
385.2681830477545
 20
151.9427030560771
 30
0.0
 10
385.415674423367
 20
152.050882243168
 30
0.0
 10
385.5781753987648
 20
152.1350012534933
 30
0.0
 10
385.696266015745
 20
152.163848149313
 30
0.0
 10
385.7547444228071
 20
152.1781331158866
 30
0.0
  0
SPLINE
  5
220
330
1F
100
AcDbEntity
  8
0
  6
SLD-Сплошная
 62
     7
370
    25
100
AcDbSpline
210
0.0
220
0.0
230
1.0
 70
     8
 71
     3
 72
    17
 73
    13
 74
     0
 42
0.00000001
 43
0.00000001
 40
0.0
 40
0.0
 40
0.0
 40
0.0
 40
0.0619212385613645
 40
0.1239507297143508
 40
0.186623495800239
 40
0.2504583057445863
 40
0.3746072643609452
 40
0.5003217186473438
 40
0.625815615285262
 40
0.7501647752202459
 40
0.8763241366179656
 40
1.0
 40
1.0
 40
1.0
 40
1.0
 10
326.8888682523029
 20
152.178133115885
 30
0.0
 10
326.9181795728902
 20
152.1718212951711
 30
0.0
 10
326.9768534570064
 20
152.1591866192265
 30
0.0
 10
327.0624543999349
 20
152.1297723075915
 30
0.0
 10
327.1459759451295
 20
152.092745263012
 30
0.0
 10
327.2520700715362
 20
152.0335498002532
 30
0.0
 10
327.3750652310862
 20
151.9430538092207
 30
0.0
 10
327.5019488645644
 20
151.8117032346839
 30
0.0
 10
327.6070874218544
 20
151.6620003181602
 30
0.0
 10
327.6853630127431
 20
151.4966390495294
 30
0.0
 10
327.7374889270956
 20
151.321191965514
 30
0.0
 10
327.7440601631721
 20
151.1997834166158
 30
0.0
 10
327.7473131203799
 20
151.1396825756708
 30
0.0
  0
SPLINE
  5
221
330
1F
100
AcDbEntity
  8
0
  6
SLD-Сплошная
 62
     7
370
    25
100
AcDbSpline
210
0.0
220
0.0
230
1.0
 70
     8
 71
     3
 72
    10
 73
     6
 74
     0
 42
0.00000001
 43
0.00000001
 40
0.0
 40
0.0
 40
0.0
 40
0.0
 40
0.5
 40
0.5
 40
1.0
 40
1.0
 40
1.0
 40
1.0
 10
315.0787093287205
 20
152.9548649523005
 30
0.0
 10
315.2523674814672
 20
152.9437712300341
 30
0.0
 10
315.4253490003086
 20
152.9621950603868
 30
0.0
 10
315.7680227720589
 20
153.0167928802456
 30
0.0
 10
315.9380183627803
 20
153.0547548416268
 30
0.0
 10
316.1076041184242
 20
153.0898657158372
 30
0.0
  0
ARC
  5
222
330
1F
100
AcDbEntity
  8
0
  6
SLD-Сплошная
 62
     7
370
    25
100
AcDbCircle
 10
356.3218063376
 20
151.1396825757
 30
0.0
 40
42.49999999999994
100
AcDbArc
 50
146.0058729902
 51
177.6843331776
  0
LINE
  5
223
330
1F
100
AcDbEntity
  8
0
  6
SLD-Сплошная
 62
     7
370
    25
100
AcDbLine
 10
319.7617871559
 20
176.5092509094
 30
0.0
 11
321.0852736333
 21
174.9017692472
 31
0.0
  0
ARC
  5
224
330
1F
100
AcDbEntity
  8
0
  6
SLD-Сплошная
 62
     7
370
    25
100
AcDbCircle
 10
356.3218063376
 20
151.1396825757
 30
0.0
 40
44.50000000000014
100
AcDbArc
 50
142.7573848006
 51
145.2426151994
  0
LINE
  5
225
330
1F
100
AcDbEntity
  8
0
  6
SLD-Сплошная
 62
     7
370
    25
100
AcDbLine
 10
320.8962458164
 20
178.0706992992
 30
0.0
 11
322.8340315394
 21
177.3087280124
 31
0.0
  0
ARC
  5
226
330
1F
100
AcDbEntity
  8
0
  6
SLD-Сплошная
 62
     7
370
    25
100
AcDbCircle
 10
356.3218063376
 20
151.1396825757
 30
0.0
 40
42.50000000000008
100
AcDbArc
 50
110.0058729902
 51
141.9941270098
  0
LINE
  5
227
330
1F
100
AcDbEntity
  8
0
  6
SLD-Сплошная
 62
     7
370
    25
100
AcDbLine
 10
341.6559876285
 20
193.1535345961
 30
0.0
 11
341.7818566662
 21
191.0751287802
 31
0.0
  0
ARC
  5
228
330
1F
100
AcDbEntity
  8
0
  6
SLD-Сплошная
 62
     7
370
    25
100
AcDbCircle
 10
356.3218063376
 20
151.1396825757
 30
0.0
 40
44.5000000000001
100
AcDbArc
 50
106.7573848006
 51
109.2426151994
  0
LINE
  5
229
330
1F
100
AcDbEntity
  8
0
  6
SLD-Сплошная
 62
     7
370
    25
100
AcDbLine
 10
343.4915803
 20
193.7499548093
 30
0.0
 11
344.6114063963
 21
191.994505219
 31
0.0
  0
ARC
  5
22A
330
1F
100
AcDbEntity
  8
0
  6
SLD-Сплошная
 62
     7
370
    25
100
AcDbCircle
 10
356.3218063376
 20
151.1396825757
 30
0.0
 40
42.50000000000021
100
AcDbArc
 50
74.0058729902
 51
105.9941270098
  0
ARC
  5
22B
330
1F
100
AcDbEntity
  8
0
  6
SLD-Сплошная
 62
     7
370
    25
100
AcDbCircle
 10
356.3218063376
 20
151.1396825757
 30
0.0
 40
44.50000000000071
100
AcDbArc
 50
325.2426151994
 51
358.1554872263
  0
ARC
  5
22C
330
1F
100
AcDbEntity
  8
0
  6
SLD-Сплошная
 62
     7
370
    25
100
AcDbCircle
 10
356.3218063376
 20
151.1396825757
 30
0.0
 40
44.50000000000033
100
AcDbArc
 50
145.2426151994
 51
178.1559808597
  0
ARC
  5
22D
330
1F
100
AcDbEntity
  8
0
  6
SLD-Сплошная
 62
     7
370
    25
100
AcDbCircle
 10
356.3218063376
 20
151.1396825757
 30
0.0
 40
44.50000000000167
100
AcDbArc
 50
1.8440191403
 51
34.7573848006
  0
ARC
  5
22E
330
1F
100
AcDbEntity
  8
0
  6
SLD-Сплошная
 62
     7
370
    25
100
AcDbCircle
 10
356.3218063376
 20
151.1396825757
 30
0.0
 40
44.50000000000008
100
AcDbArc
 50
181.8445127737
 51
214.7573848006
  0
ARC
  5
22F
330
1F
100
AcDbEntity
  8
0
  6
SLD-Сплошная
 62
     7
370
    25
100
AcDbCircle
 10
356.3218063376
 20
151.1396825757
 30
0.0
 40
44.50000000000103
100
AcDbArc
 50
37.2426151994
 51
70.7573848006
  0
ARC
  5
230
330
1F
100
AcDbEntity
  8
0
  6
SLD-Сплошная
 62
     7
370
    25
100
AcDbCircle
 10
356.3218063376
 20
151.1396825757
 30
0.0
 40
44.50000000000084
100
AcDbArc
 50
73.2426151994
 51
106.7573848006
  0
ARC
  5
231
330
1F
100
AcDbEntity
  8
0
  6
SLD-Сплошная
 62
     7
370
    25
100
AcDbCircle
 10
356.3218063376
 20
151.1396825757
 30
0.0
 40
44.50000000000015
100
AcDbArc
 50
109.2426151994
 51
142.7573848006
  0
ARC
  5
232
330
1F
100
AcDbEntity
  8
0
  6
SLD-Сплошная
 62
     7
370
    25
100
AcDbCircle
 10
356.3218063376
 20
151.1396825757
 30
0.0
 40
44.50000000000012
100
AcDbArc
 50
289.2426151994
 51
322.7573848006
  0
ARC
  5
233
330
1F
100
AcDbEntity
  8
0
  6
SLD-Сплошная
 62
     7
370
    25
100
AcDbCircle
 10
356.3218063376
 20
151.1396825757
 30
0.0
 40
44.50000000000016
100
AcDbArc
 50
253.2426151994
 51
286.7573848006
  0
ARC
  5
234
330
1F
100
AcDbEntity
  8
0
  6
SLD-Сплошная
 62
     7
370
    25
100
AcDbCircle
 10
356.3218063376
 20
151.1396825757
 30
0.0
 40
44.5000000000002
100
AcDbArc
 50
217.2426151994
 51
250.7573848006
  0
LINE
  5
235
330
1F
100
AcDbEntity
  8
0
  6
SLD-Сплошная
 62
     7
370
    25
100
AcDbLine
 10
368.9217930249
 20
194.6815228967
 30
0.0
 11
368.9217996143
 21
193.8186020726
 31
0.0
  0
LINE
  5
236
330
1F
100
AcDbEntity
  8
0
  6
SLD-Сплошная
 62
     7
370
    25
100
AcDbLine
 10
343.3217996148
 20
193.6984633995
 30
0.0
 11
343.321799627
 21
194.6815228967
 31
0.0
  0
LWPOLYLINE
  5
237
330
1F
100
AcDbEntity
  8
0
  6
SLD-Сплошная
 62
     7
370
    25
100
AcDbPolyline
 90
        6
 70
   128
 43
0.0
 10
368.9217963196
 20
197.508241215
 10
368.9217996143
 20
198.2739050333
 10
368.9217996143
 20
198.9305619469
 10
368.9217996143
 20
199.3671048416
 10
368.9217996143
 20
199.5637468833
 10
368.9217996143
 20
199.5743424035
  0
LINE
  5
238
330
1F
100
AcDbEntity
  8
0
  6
SLD-Сплошная
 62
     7
370
    25
100
AcDbLine
 10
343.3217996148
 20
199.0590352322
 30
0.0
 11
343.3217996148
 21
199.5743424035
 31
0.0
  0
LINE
  5
239
330
1F
100
AcDbEntity
  8
0
  6
SLD-Сплошная
 62
     7
370
    25
100
AcDbLine
 10
343.3217996209
 20
197.508241215
 30
0.0
 11
343.3217996148
 21
199.0590352322
 31
0.0
  0
LINE
  5
23A
330
1F
100
AcDbEntity
  8
0
  6
SLD-Сплошная
 62
     7
370
    25
100
AcDbLine
 10
177.37695587
 20
289.6673162866
 30
0.0
 11
176.4264180962
 21
289.6673162866
 31
0.0
  0
LINE
  5
23B
330
1F
100
AcDbEntity
  8
0
  6
SLD-Сплошная
 62
     7
370
    25
100
AcDbLine
 10
144.8324630179
 20
226.6673162866
 30
0.0
 11
177.37695587
 21
226.6673162866
 31
0.0
  0
LINE
  5
23C
330
1F
100
AcDbEntity
  8
0
  6
SLD-Сплошная
 62
     7
370
    25
100
AcDbLine
 10
208.9194055185
 20
285.1673162866
 30
0.0
 11
194.5774558704
 21
285.1673162866
 31
0.0
  0
LINE
  5
23D
330
1F
100
AcDbEntity
  8
0
  6
SLD-Сплошная
 62
     7
370
    25
100
AcDbLine
 10
206.7947298798
 20
231.1673162866
 30
0.0
 11
208.9194055185
 21
231.1673162866
 31
0.0
  0
LINE
  5
23E
330
1F
100
AcDbEntity
  8
0
  6
SLD-Сплошная
 62
     7
370
    25
100
AcDbLine
 10
221.5304817103
 20
232.3123807209
 30
0.0
 11
250.1770091424
 21
237.5591377439
 31
0.0
  0
LINE
  5
23F
330
1F
100
AcDbEntity
  8
0
  6
SLD-Сплошная
 62
     7
370
    25
100
AcDbLine
 10
250.1770091402
 20
278.7754948432
 30
0.0
 11
221.5305349785
 21
284.0222421093
 31
0.0
  0
ARC
  5
240
330
1F
100
AcDbEntity
  8
0
  6
SLD-Сплошная
 62
     7
370
    25
100
AcDbCircle
 10
252.4269558708
 20
236.0673162872
 30
0.0
 40
2.250000000653345
100
AcDbArc
 50
180.0
 51
247.9610816735
  0
ARC
  5
241
330
1F
100
AcDbEntity
  8
0
  6
SLD-Сплошная
 62
     7
370
    25
100
AcDbCircle
 10
252.4269558708
 20
280.267316286
 30
0.0
 40
2.250000000653358
100
AcDbArc
 50
112.0389183347
 51
180.0
  0
LINE
  5
242
330
1F
100
AcDbEntity
  8
0
  6
SLD-Сплошная
 62
     7
370
    25
100
AcDbLine
 10
279.27695587
 20
280.9166697369
 30
0.0
 11
269.27695587
 21
280.9166697369
 31
0.0
  0
LINE
  5
243
330
1F
100
AcDbEntity
  8
0
  6
SLD-Сплошная
 62
     7
370
    25
100
AcDbLine
 10
269.27695587
 20
235.6166697369
 30
0.0
 11
279.27695587
 21
235.6166697369
 31
0.0
  0
LINE
  5
244
330
1F
100
AcDbEntity
  8
0
  6
SLD-Сплошная
 62
     7
370
    25
100
AcDbLine
 10
279.27695587
 20
238.8166697369
 30
0.0
 11
292.27695587
 21
238.8166697369
 31
0.0
  0
LINE
  5
245
330
1F
100
AcDbEntity
  8
0
  6
SLD-Сплошная
 62
     7
370
    25
100
AcDbLine
 10
292.27695587
 20
277.7166697369
 30
0.0
 11
279.27695587
 21
277.7166697369
 31
0.0
  0
LINE
  5
246
330
1F
100
AcDbEntity
  8
0
  6
SLD-Сплошная
 62
     7
370
    25
100
AcDbLine
 10
144.8324630179
 20
302.8673229968
 30
0.0
 11
140.8324630179
 21
302.8673229968
 31
0.0
  0
LINE
  5
247
330
1F
100
AcDbEntity
  8
0
  6
SLD-Сплошная
 62
     7
370
    25
100
AcDbLine
 10
140.8324630179
 20
213.8673229968
 30
0.0
 11
144.8324630179
 21
213.8673229968
 31
0.0
  0
LINE
  5
248
330
1F
100
AcDbEntity
  8
0
  6
SLD-Сплошная
 62
     7
370
    25
100
AcDbLine
 10
123.7769558702
 20
231.1173229968
 30
0.0
 11
125.5981271636
 21
231.1173229968
 31
0.0
  0
LINE
  5
249
330
1F
100
AcDbEntity
  8
0
  6
SLD-Сплошная
 62
     7
370
    25
100
AcDbLine
 10
125.5981271636
 20
285.6173229968
 30
0.0
 11
123.7769558702
 21
285.6173229968
 31
0.0
  0
ARC
  5
24A
330
1F
100
AcDbEntity
  8
0
  6
SLD-Сплошная
 62
     7
370
    25
100
AcDbCircle
 10
246.0373725369
 20
258.3673229968
 30
0.0
 40
125.260416666665
100
AcDbArc
 50
180.0
 51
192.5649841763
  0
ARC
  5
24B
330
1F
100
AcDbEntity
  8
0
  6
SLD-Сплошная
 62
     7
370
    25
100
AcDbCircle
 10
246.0373725369
 20
258.3673229968
 30
0.0
 40
125.260416666665
100
AcDbArc
 50
167.4350158237
 51
180.0
  0
SPLINE
  5
24C
330
1F
100
AcDbEntity
  8
0
  6
SLD-Сплошная
 62
     7
370
    25
100
AcDbSpline
210
0.0
220
0.0
230
1.0
 70
     8
 71
     3
 72
    15
 73
    11
 74
     0
 42
0.00000001
 43
0.00000001
 40
0.0
 40
0.0
 40
0.0
 40
0.0
 40
0.1250000001894668
 40
0.2500000000000998
 40
0.3750000001349869
 40
0.5000000000001512
 40
0.6250000000813596
 40
0.7500000000002253
 40
0.875000000027277
 40
1.0
 40
1.0
 40
1.0
 40
1.0
 10
124.4055510649584
 20
304.5673229968187
 30
0.0
 10
124.3276532894851
 20
304.562473702302
 30
0.0
 10
124.1718577387746
 20
304.5527751132832
 30
0.0
 10
123.9485682641596
 20
304.4765251102651
 30
0.0
 10
123.7460363757686
 20
304.3579823274417
 30
0.0
 10
123.5729204990862
 20
304.1988534272761
 30
0.0
 10
123.4374027503497
 20
304.0066918979699
 30
0.0
 10
123.3459203944199
 20
303.7905842030858
 30
0.0
 10
123.299051205912
 20
303.5593364321937
 30
0.0
 10
123.3094904467909
 20
303.4035887564514
 30
0.0
 10
123.3147100672293
 20
303.325714918597
 30
0.0
  0
SPLINE
  5
24D
330
1F
100
AcDbEntity
  8
0
  6
SLD-Сплошная
 62
     7
370
    25
100
AcDbSpline
210
0.0
220
0.0
230
1.0
 70
     8
 71
     3
 72
    15
 73
    11
 74
     0
 42
0.00000001
 43
0.00000001
 40
0.0
 40
0.0
 40
0.0
 40
0.0
 40
0.124999999999804
 40
0.2499999999998653
 40
0.3749999999996403
 40
0.4999999999992517
 40
0.6249999999994733
 40
0.7499999999999497
 40
0.8750000000000528
 40
1.0
 40
1.0
 40
1.0
 40
1.0
 10
123.3147100672281
 20
213.4089310750829
 30
0.0
 10
123.3094904452489
 20
213.3310569857572
 30
0.0
 10
123.2990512012907
 20
213.1753088071055
 30
0.0
 10
123.3459207871566
 20
212.944060330945
 30
0.0
 10
123.4374038042907
 20
212.7279520927832
 30
0.0
 10
123.5729224511762
 20
212.5357902638587
 30
0.0
 10
123.7460393759253
 20
212.3766613773708
 30
0.0
 10
123.9485723636776
 20
212.2581189718869
 30
0.0
 10
124.1718629016947
 20
212.181869700165
 30
0.0
 10
124.3276590043416
 20
212.1721718979519
 30
0.0
 10
124.4055570556651
 20
212.1673229968453
 30
0.0
  0
LINE
  5
24E
330
1F
100
AcDbEntity
  8
0
  6
SLD-Сплошная
 62
     7
370
    25
100
AcDbLine
 10
140.8324630179
 20
304.5673229968
 30
0.0
 11
124.4030488463
 21
304.5673229968
 31
0.0
  0
SPLINE
  5
24F
330
1F
100
AcDbEntity
  8
0
  6
SLD-Сплошная
 62
     7
370
    25
100
AcDbSpline
210
0.0
220
0.0
230
1.0
 70
     8
 71
     3
 72
    11
 73
     7
 74
     0
 42
0.00000001
 43
0.00000001
 40
0.0
 40
0.0
 40
0.0
 40
0.0
 40
0.2499374635794528
 40
0.4999999999998379
 40
0.7500625364203115
 40
1.0
 40
1.0
 40
1.0
 40
1.0
 10
125.6944141960349
 20
229.7928297796348
 30
0.0
 10
125.6945654970511
 20
229.7788058224957
 30
0.0
 10
125.6948681747972
 20
229.7507508903974
 30
0.0
 10
125.6840335552112
 20
229.7098607409995
 30
0.0
 10
125.666297530439
 20
229.6714572681795
 30
0.0
 10
125.6481703397082
 20
229.6500428855111
 30
0.0
 10
125.639109011562
 20
229.6393383725345
 30
0.0
  0
SPLINE
  5
250
330
1F
100
AcDbEntity
  8
0
  6
SLD-Сплошная
 62
     7
370
    25
100
AcDbSpline
210
0.0
220
0.0
230
1.0
 70
     8
 71
     3
 72
    11
 73
     7
 74
     0
 42
0.00000001
 43
0.00000001
 40
0.0
 40
0.0
 40
0.0
 40
0.0
 40
0.2499374635757313
 40
0.4999999999980907
 40
0.7500625364207618
 40
1.0
 40
1.0
 40
1.0
 40
1.0
 10
125.6391090115643
 20
287.0953076211447
 30
0.0
 10
125.6481703397099
 20
287.0846031081682
 30
0.0
 10
125.6662975304399
 20
287.0631887254996
 30
0.0
 10
125.6840335552119
 20
287.0247852526801
 30
0.0
 10
125.6948681747982
 20
286.9838951032825
 30
0.0
 10
125.694565497052
 20
286.9558401711844
 30
0.0
 10
125.6944141960357
 20
286.9418162140454
 30
0.0
  0
SPLINE
  5
251
330
1F
100
AcDbEntity
  8
0
  6
SLD-Сплошная
 62
     7
370
    25
100
AcDbSpline
210
0.0
220
0.0
230
1.0
 70
     8
 71
     3
 72
    11
 73
     7
 74
     0
 42
0.00000001
 43
0.00000001
 40
0.0
 40
0.0
 40
0.0
 40
0.0
 40
0.2831842859823157
 40
0.566368576712947
 40
0.8495528808588669
 40
1.0
 40
1.0
 40
1.0
 40
1.0
 10
125.3410490896114
 20
287.7162535968811
 30
0.0
 10
125.3534149039447
 20
287.6491006228201
 30
0.0
 10
125.3781465328187
 20
287.514794673572
 30
0.0
 10
125.4626178141279
 20
287.3275978801652
 30
0.0
 10
125.5557818424999
 20
287.1807291924487
 30
0.0
 10
125.6311924550396
 20
287.1085339705475
 30
0.0
 10
125.6573559404329
 20
287.0834860552732
 30
0.0
  0
SPLINE
  5
252
330
1F
100
AcDbEntity
  8
0
  6
SLD-Сплошная
 62
     7
370
    25
100
AcDbSpline
210
0.0
220
0.0
230
1.0
 70
     8
 71
     3
 72
    12
 73
     8
 74
     0
 42
0.00000001
 43
0.00000001
 40
0.0
 40
0.0
 40
0.0
 40
0.0
 40
0.219279002670544
 40
0.4184210359215523
 40
0.5939043724443777
 40
0.7426318063007212
 40
1.0
 40
1.0
 40
1.0
 40
1.0
 10
125.7245834989011
 20
229.7192265592591
 30
0.0
 10
125.6785808868525
 20
229.6758713533956
 30
0.0
 10
125.5908002040051
 20
229.5931423646228
 30
0.0
 10
125.4854354290321
 20
229.439009556321
 30
0.0
 10
125.4127178520024
 20
229.2947352362941
 30
0.0
 10
125.3560767822628
 20
229.1328067959691
 30
0.0
 10
125.3411592555324
 20
229.0187180639446
 30
0.0
 10
125.3317050860005
 20
228.9464129001107
 30
0.0
  0
SPLINE
  5
253
330
1F
100
AcDbEntity
  8
0
  6
SLD-Сплошная
 62
     7
370
    25
100
AcDbSpline
210
0.0
220
0.0
230
1.0
 70
    24
 71
     3
 72
    19
 73
    15
 74
     0
 42
0.00000001
 43
0.00000001
 40
0.0
 40
0.0
 40
0.0
 40
0.0
 40
0.0625702982800124
 40
0.1250888771025978
 40
0.1875711582395603
 40
0.2500325903484822
 40
0.3124886375581238
 40
0.3749547679965059
 40
0.4374464423041559
 40
0.499979102175125
 40
0.6249709105952026
 40
0.7498890863314953
 40
0.8748575317744751
 40
1.0
 40
1.0
 40
1.0
 40
1.0
 10
144.7769558701712
 20
259.6673162876081
 30
0.0
 10
144.7769558701712
 20
259.4680333952179
 30
0.0
 10
144.7769558701712
 20
259.06963233401
 30
0.0
 10
144.7769558701712
 20
258.4719065867612
 30
0.0
 10
144.7769558701712
 20
257.8744783886345
 30
0.0
 10
144.7769558701712
 20
257.2773143099651
 30
0.0
 10
144.7769558701712
 20
256.6804232348987
 30
0.0
 10
144.7769558701712
 20
256.0838036906307
 30
0.0
 10
144.7769558701712
 20
255.4874533443651
 30
0.0
 10
144.7769558701712
 20
254.6931228260482
 30
0.0
 10
144.7769558701712
 20
253.7023889383824
 30
0.0
 10
144.7769558701712
 20
252.5182739364857
 30
0.0
 10
144.7769558701712
 20
251.3387104142057
 30
0.0
 10
144.7769558701712
 20
250.5579620763078
 30
0.0
 10
144.7769558701712
 20
250.1673162918659
 30
0.0
  0
LINE
  5
254
330
1F
100
AcDbEntity
  8
0
  6
SLD-Сплошная
 62
     7
370
    25
100
AcDbLine
 10
177.37695587
 20
251.8576893048
 30
0.0
 11
144.7769558651
 21
251.8576893023
 31
0.0
  0
LINE
  5
255
330
1F
100
AcDbEntity
  8
0
  6
SLD-Сплошная
 62
     7
370
    25
100
AcDbLine
 10
177.37695587
 20
264.4769432683
 30
0.0
 11
144.7769558651
 21
264.47694327
 31
0.0
  0
LINE
  5
256
330
1F
100
AcDbEntity
  8
0
  6
SLD-Сплошная
 62
     7
370
    25
100
AcDbLine
 10
177.37695587
 20
264.4769432683
 30
0.0
 11
177.37695587
 21
251.8576893048
 31
0.0
  0
SPLINE
  5
257
330
1F
100
AcDbEntity
  8
0
  6
SLD-Сплошная
 62
     7
370
    25
100
AcDbSpline
210
0.0
220
0.0
230
1.0
 70
    24
 71
     3
 72
    16
 73
    12
 74
     0
 42
0.00000001
 43
0.00000001
 40
0.0
 40
0.0
 40
0.0
 40
0.0
 40
0.1044112755340312
 40
0.2158737392344924
 40
0.3283060579308273
 40
0.4407046482394206
 40
0.5522017427786735
 40
0.6636660435368467
 40
0.77602502295806
 40
0.88843067711918
 40
1.0
 40
1.0
 40
1.0
 40
1.0
 10
144.7769558701713
 20
292.1375105204865
 30
0.0
 10
144.7769558701713
 20
292.0769560225247
 30
0.0
 10
144.7769558701713
 20
291.9517576104219
 30
0.0
 10
144.7769558701713
 20
290.6836030913968
 30
0.0
 10
144.7769558701713
 20
288.6125953991534
 30
0.0
 10
144.7769558701713
 20
285.7740681034488
 30
0.0
 10
144.7769558701713
 20
282.2304280151523
 30
0.0
 10
144.7769558701713
 20
278.0728674537639
 30
0.0
 10
144.7769558701712
 20
273.3864607967156
 30
0.0
 10
144.7769558701712
 20
268.3330168250463
 30
0.0
 10
144.7769558701712
 20
264.7677582464762
 30
0.0
 10
144.7769558701712
 20
262.9917853643287
 30
0.0
  0
SPLINE
  5
258
330
1F
100
AcDbEntity
  8
0
  6
SLD-Сплошная
 62
     7
370
    25
100
AcDbSpline
210
0.0
220
0.0
230
1.0
 70
    24
 71
     3
 72
    44
 73
    40
 74
     0
 42
0.00000001
 43
0.00000001
 40
0.0
 40
0.0
 40
0.0
 40
0.0
 40
0.0131584494545849
 40
0.0262942281999962
 40
0.0394114101265406
 40
0.0525140864709315
 40
0.0656063620685419
 40
0.0786923515423203
 40
0.091776175445829
 40
0.1048619563783658
 40
0.1179538150904353
 40
0.1310558665979422
 40
0.1441722163233831
 40
0.1573069562820163
 40
0.1704641613305012
 40
0.1836478854948251
 40
0.1968621583934832
 40
0.2101109817708841
 40
0.2233983261548103
 40
0.2367281276505069
 40
0.2501042848826281
 40
0.3131550903412655
 40
0.3755306626622531
 40
0.4376662588657184
 40
0.5000021630345917
 40
0.5622634991712164
 40
0.6243722365803808
 40
0.6867692246112576
 40
0.7498892732155824
 40
0.775244858870449
 40
0.8004500362096191
 40
0.8255319803381427
 40
0.8505182684498931
 40
0.8754367953266978
 40
0.9003156836777945
 40
0.9251831906946276
 40
0.9500676123404649
 40
0.9749971869825044
 40
1.0
 40
1.0
 40
1.0
 40
1.0
 10
144.7769558701712
 20
250.1673162925252
 30
0.0
 10
144.7769558701712
 20
249.9743697733851
 30
0.0
 10
144.7769558701712
 20
249.5888091629064
 30
0.0
 10
144.7769558701712
 20
249.0142055236531
 30
0.0
 10
144.7769558701711
 20
248.44306382881
 30
0.0
 10
144.7769558701712
 20
247.8756070654147
 30
0.0
 10
144.7769558701712
 20
247.3117758225927
 30
0.0
 10
144.7769558701712
 20
246.7515862142983
 30
0.0
 10
144.7769558701712
 20
246.1950341430073
 30
0.0
 10
144.7769558701712
 20
245.6421209172542
 30
0.0
 10
144.7769558701711
 20
245.0928463919097
 30
0.0
 10
144.7769558701712
 20
244.547210804076
 30
0.0
 10
144.7769558701712
 20
244.0052142806951
 30
0.0
 10
144.7769558701712
 20
243.4668569664891
 30
0.0
 10
144.7769558701712
 20
242.9321389996873
 30
0.0
 10
144.7769558701712
 20
242.4010604762562
 30
0.0
 10
144.7769558701712
 20
241.873621613654
 30
0.0
 10
144.7769558701711
 20
241.3498221259161
 30
0.0
 10
144.7769558701711
 20
240.8296635654447
 30
0.0
 10
144.7769558701712
 20
240.3131405418876
 30
0.0
 10
144.7769558701711
 20
239.1661034164834
 30
0.0
 10
144.7769558701711
 20
237.4463669645812
 30
0.0
 10
144.7769558701711
 20
235.2658828385431
 30
0.0
 10
144.776955870171
 20
233.2534892463335
 30
0.0
 10
144.7769558701711
 20
231.4165338440764
 30
0.0
 10
144.776955870171
 20
229.7638603705388
 30
0.0
 10
144.7769558701711
 20
228.3099331134325
 30
0.0
 10
144.7769558701711
 20
227.0594674473757
 30
0.0
 10
144.7769558701711
 20
226.2270219167337
 30
0.0
 10
144.776955870171
 20
225.6908822467136
 30
0.0
 10
144.7769558701711
 20
225.3697722334985
 30
0.0
 10
144.776955870171
 20
225.0864413066946
 30
0.0
 10
144.7769558701711
 20
224.8408923007173
 30
0.0
 10
144.776955870171
 20
224.6331109088624
 30
0.0
 10
144.776955870171
 20
224.4631638718887
 30
0.0
 10
144.7769558701711
 20
224.3308083391266
 30
0.0
 10
144.7769558701711
 20
224.2369557412776
 30
0.0
 10
144.776955870171
 20
224.1781987656402
 30
0.0
 10
144.7769558701711
 20
224.1709473272466
 30
0.0
 10
144.7769558701711
 20
224.1673162900227
 30
0.0
  0
LINE
  5
259
330
1F
100
AcDbEntity
  8
0
  6
SLD-Сплошная
 62
     7
370
    25
100
AcDbLine
 10
176.37695587
 20
289.6673162866
 30
0.0
 11
144.8324630179
 21
289.6673162866
 31
0.0
  0
LINE
  5
25A
330
1F
100
AcDbEntity
  8
0
  6
SLD-Сплошная
 62
     7
370
    25
100
AcDbLine
 10
177.37695587
 20
289.6673162866
 30
0.0
 11
177.37695587
 21
264.4769432683
 31
0.0
  0
LINE
  5
25B
330
1F
100
AcDbEntity
  8
0
  6
SLD-Сплошная
 62
     7
370
    25
100
AcDbLine
 10
177.37695587
 20
226.6673162866
 30
0.0
 11
177.37695587
 21
251.8576893048
 31
0.0
  0
ARC
  5
25C
330
1F
100
AcDbEntity
  8
0
  6
SLD-Сплошная
 62
     7
370
    25
100
AcDbCircle
 10
208.9194055182
 20
215.1673162935
 30
0.0
 40
69.99999999313806
100
AcDbArc
 50
79.6210235342
 51
90.0
  0
SPLINE
  5
25D
330
1F
100
AcDbEntity
  8
0
  6
SLD-Сплошная
 62
     7
370
    25
100
AcDbSpline
210
0.0
220
0.0
230
1.0
 70
     8
 71
     3
 72
     8
 73
     4
 74
     0
 42
0.00000001
 43
0.00000001
 40
0.0
 40
0.0
 40
0.0
 40
0.0
 40
1.0
 40
1.0
 40
1.0
 40
1.0
 10
221.5304817101722
 20
232.3155847963579
 30
0.0
 10
217.3721870589375
 20
231.5538864669204
 30
0.0
 10
213.1469559642993
 20
231.1700965879561
 30
0.0
 10
208.9194055182189
 20
231.1700965879532
 30
0.0
  0
LINE
  5
25E
330
1F
100
AcDbEntity
  8
0
  6
SLD-Сплошная
 62
     7
370
    25
100
AcDbLine
 10
177.37695587
 20
285.1673162866
 30
0.0
 11
194.5769558702
 21
285.1673162866
 31
0.0
  0
LINE
  5
25F
330
1F
100
AcDbEntity
  8
0
  6
SLD-Сплошная
 62
     7
370
    25
100
AcDbLine
 10
177.37695587
 20
231.1673162866
 30
0.0
 11
206.78472988
 21
231.1673162866
 31
0.0
  0
SPLINE
  5
260
330
1F
100
AcDbEntity
  8
0
  6
SLD-Сплошная
 62
     7
370
    25
100
AcDbSpline
210
0.0
220
0.0
230
1.0
 70
     8
 71
     3
 72
    10
 73
     6
 74
     0
 42
0.00000001
 43
0.00000001
 40
0.0
 40
0.0
 40
0.0
 40
0.0
 40
0.5
 40
0.5
 40
1.0
 40
1.0
 40
1.0
 40
1.0
 10
251.5826741967571
 20
233.9817256134989
 30
0.0
 10
251.7873931376099
 20
233.8988519929891
 30
0.0
 10
252.010578447897
 20
233.8619649909671
 30
0.0
 10
252.451573805313
 20
233.8871566883862
 30
0.0
 10
252.6691066409459
 20
233.9492195522226
 30
0.0
 10
252.8630563866333
 20
234.0548669746622
 30
0.0
  0
SPLINE
  5
261
330
1F
100
AcDbEntity
  8
0
  6
SLD-Сплошная
 62
     7
370
    25
100
AcDbSpline
210
0.0
220
0.0
230
1.0
 70
     8
 71
     3
 72
    10
 73
     6
 74
     0
 42
0.00000001
 43
0.00000001
 40
0.0
 40
0.0
 40
0.0
 40
0.0
 40
0.5
 40
0.5
 40
1.0
 40
1.0
 40
1.0
 40
1.0
 10
252.8630563879362
 20
282.2797655978641
 30
0.0
 10
252.6691066421317
 20
282.3854130206008
 30
0.0
 10
252.4515738062883
 20
282.4474758846579
 30
0.0
 10
252.010578448394
 20
282.4726675822979
 30
0.0
 10
251.7873931378406
 20
282.435780580276
 30
0.0
 10
251.5826741967649
 20
282.3529069596636
 30
0.0
  0
SPLINE
  5
262
330
1F
100
AcDbEntity
  8
0
  6
SLD-Сплошная
 62
     7
370
    25
100
AcDbSpline
210
0.0
220
0.0
230
1.0
 70
     8
 71
     3
 72
    32
 73
    28
 74
     0
 42
0.00000001
 43
0.00000001
 40
0.0
 40
0.0
 40
0.0
 40
0.0
 40
0.0104237598559955
 40
0.0215522869280405
 40
0.0333854078935929
 40
0.0496978979569283
 40
0.0660069832529691
 40
0.0980915331077284
 40
0.1456229131099436
 40
0.2810627603057954
 40
0.35431065989073
 40
0.4018429455340531
 40
0.4339291177215892
 40
0.4999054813318846
 40
0.5332872265341803
 40
0.565906013598312
 40
0.624922500973741
 40
0.6839559308211296
 40
0.7810897856066824
 40
0.8070217236054468
 40
0.8346879611224793
 40
0.8682988314118519
 40
0.9019083028058109
 40
0.9290133893164684
 40
0.9543980743556915
 40
0.9780607348007271
 40
1.0
 40
1.0
 40
1.0
 40
1.0
 10
250.1769558700861
 20
258.1673162865762
 30
0.0
 10
250.1769558692168
 20
258.0468183460887
 30
0.0
 10
250.1769558674193
 20
257.7976754050094
 30
0.0
 10
250.1769559133268
 20
257.4118579991513
 30
0.0
 10
250.1769562124641
 20
256.9582893321841
 30
0.0
 10
250.176957231929
 20
256.4455106135284
 30
0.0
 10
250.1769602737434
 20
255.7007313756468
 30
0.0
 10
250.1769725266537
 20
254.6010675245063
 30
0.0
 10
250.1770241375816
 20
252.1607932358123
 30
0.0
 10
250.1770845320052
 20
249.3407878544196
 30
0.0
 10
250.1770084696985
 20
246.7325235533939
 30
0.0
 10
250.1769711969731
 20
245.2626517788138
 30
0.0
 10
250.1769553766758
 20
243.9256127396527
 30
0.0
 10
250.1769559790067
 20
242.7917395223877
 30
0.0
 10
250.1769558057512
 20
241.7427025401135
 30
0.0
 10
250.1769589722637
 20
240.8060446732203
 30
0.0
 10
250.1769844874695
 20
239.7766096413258
 30
0.0
 10
250.1770470086408
 20
238.4973058297976
 30
0.0
 10
250.1770682427651
 20
237.6367605692013
 30
0.0
 10
250.1770383025807
 20
237.0800744397094
 30
0.0
 10
250.1770169544581
 20
236.7976410455869
 30
0.0
 10
250.1769925900611
 20
236.5406529139852
 30
0.0
 10
250.1769708845574
 20
236.340637137505
 30
0.0
 10
250.1769597657045
 20
236.2047699716263
 30
0.0
 10
250.1769564497918
 20
236.1222518018237
 30
0.0
 10
250.1769558312205
 20
236.0754543931229
 30
0.0
 10
250.1769558574907
 20
236.0699597732079
 30
0.0
 10
250.1769558701294
 20
236.0673162900264
 30
0.0
  0
SPLINE
  5
263
330
1F
100
AcDbEntity
  8
0
  6
SLD-Сплошная
 62
     7
370
    25
100
AcDbSpline
210
0.0
220
0.0
230
1.0
 70
     8
 71
     3
 72
    29
 73
    25
 74
     0
 42
0.00000001
 43
0.00000001
 40
0.0
 40
0.0
 40
0.0
 40
0.0
 40
0.0109462654540345
 40
0.0226733681017016
 40
0.0351811043026061
 40
0.0484692348912824
 40
0.0625374854129791
 40
0.0825354558650742
 40
0.1250499130403799
 40
0.1931402270320342
 40
0.2500935302794031
 40
0.3749931360273051
 40
0.43748909109889
 40
0.5000009497236244
 40
0.562512808347353
 40
0.6250087634224536
 40
0.749908369165499
 40
0.8068640455334448
 40
0.8749519864630919
 40
0.9173939399814237
 40
0.9374644456585688
 40
0.9604428518949565
 40
0.9812884164861648
 40
1.0
 40
1.0
 40
1.0
 40
1.0
 10
250.1769558701203
 20
280.2673162831551
 30
0.0
 10
250.1769558690329
 20
280.2666523145609
 30
0.0
 10
250.1769558667804
 20
280.2652770140618
 30
0.0
 10
250.1769559234305
 20
280.2536311481509
 30
0.0
 10
250.1769562504155
 20
280.2332649109266
 30
0.0
 10
250.1769572164448
 20
280.2018698564794
 30
0.0
 10
250.1769594679128
 20
280.1526621152807
 30
0.0
 10
250.1769669615712
 20
280.0488236810697
 30
0.0
 10
250.1769910163489
 20
279.7981923801905
 30
0.0
 10
250.1770398704153
 20
279.3122282317565
 30
0.0
 10
250.1770805326201
 20
278.3228478038192
 30
0.0
 10
250.1769939997575
 20
276.9887813322691
 30
0.0
 10
250.176954011881
 20
275.2750847450793
 30
0.0
 10
250.1769567993341
 20
273.8207034831765
 30
0.0
 10
250.1769540118208
 20
272.2083716241439
 30
0.0
 10
250.1769940000607
 20
269.8786538039796
 30
0.0
 10
250.1770805315179
 20
267.3652571814209
 30
0.0
 10
250.1770398727562
 20
264.6484815708009
 30
0.0
 10
250.1769910436546
 20
262.7702365211622
 30
0.0
 10
250.1769669605123
 20
261.2806104222279
 30
0.0
 10
250.1769586183914
 20
260.299139426367
 30
0.0
 10
250.1769563172901
 20
259.5629731074575
 30
0.0
 10
250.1769558421092
 20
258.8408410760496
 30
0.0
 10
250.176955861102
 20
258.3836023631173
 30
0.0
 10
250.1769558700861
 20
258.1673162865762
 30
0.0
  0
LINE
  5
264
330
1F
100
AcDbEntity
  8
0
  6
SLD-Сплошная
 62
     7
370
    25
100
AcDbLine
 10
258.576955869
 20
279.1682434059
 30
0.0
 11
252.8634458434
 21
282.2804805705
 31
0.0
  0
LINE
  5
265
330
1F
100
AcDbEntity
  8
0
  6
SLD-Сплошная
 62
     7
370
    25
100
AcDbLine
 10
258.5769558701
 20
258.1673162866
 30
0.0
 11
258.5769558699
 21
279.1682434055
 31
0.0
  0
LINE
  5
266
330
1F
100
AcDbEntity
  8
0
  6
SLD-Сплошная
 62
     7
370
    25
100
AcDbLine
 10
258.5769558701
 20
258.1673162866
 30
0.0
 11
258.5769558701
 21
237.1663891618
 31
0.0
  0
LINE
  5
267
330
1F
100
AcDbEntity
  8
0
  6
SLD-Сплошная
 62
     7
370
    25
100
AcDbLine
 10
258.5769558708
 20
237.1663891621
 30
0.0
 11
252.8634458464
 21
234.0541519982
 31
0.0
  0
LINE
  5
268
330
1F
100
AcDbEntity
  8
0
  6
SLD-Сплошная
 62
     7
370
    25
100
AcDbLine
 10
279.27695587
 20
280.8885529466
 30
0.0
 11
279.27695587
 21
280.9166697369
 31
0.0
  0
LINE
  5
269
330
1F
100
AcDbEntity
  8
0
  6
SLD-Сплошная
 62
     7
370
    25
100
AcDbLine
 10
279.27695587
 20
280.8885529466
 30
0.0
 11
272.27695587
 21
280.8885529466
 31
0.0
  0
LINE
  5
26A
330
1F
100
AcDbEntity
  8
0
  6
SLD-Сплошная
 62
     7
370
    25
100
AcDbLine
 10
272.27695587
 20
280.8885529466
 30
0.0
 11
272.27695587
 21
270.9046943246
 31
0.0
  0
LINE
  5
26B
330
1F
100
AcDbEntity
  8
0
  6
SLD-Сплошная
 62
     7
370
    25
100
AcDbLine
 10
279.27695587
 20
270.9046943246
 30
0.0
 11
272.27695587
 21
270.9046943246
 31
0.0
  0
LINE
  5
26C
330
1F
100
AcDbEntity
  8
0
  6
SLD-Сплошная
 62
     7
370
    25
100
AcDbLine
 10
279.27695587
 20
270.9046943246
 30
0.0
 11
279.27695587
 21
268.6005366072
 31
0.0
  0
LINE
  5
26D
330
1F
100
AcDbEntity
  8
0
  6
SLD-Сплошная
 62
     7
370
    25
100
AcDbLine
 10
279.27695587
 20
268.6005366072
 30
0.0
 11
272.27695587
 21
268.6005366072
 31
0.0
  0
LINE
  5
26E
330
1F
100
AcDbEntity
  8
0
  6
SLD-Сплошная
 62
     7
370
    25
100
AcDbLine
 10
272.27695587
 20
268.6005366072
 30
0.0
 11
272.27695587
 21
248.3075640225
 31
0.0
  0
LINE
  5
26F
330
1F
100
AcDbEntity
  8
0
  6
SLD-Сплошная
 62
     7
370
    25
100
AcDbLine
 10
279.27695587
 20
248.3075640225
 30
0.0
 11
272.27695587
 21
248.3075640225
 31
0.0
  0
LINE
  5
270
330
1F
100
AcDbEntity
  8
0
  6
SLD-Сплошная
 62
     7
370
    25
100
AcDbLine
 10
279.27695587
 20
248.3075640225
 30
0.0
 11
279.27695587
 21
245.9786533975
 31
0.0
  0
LINE
  5
271
330
1F
100
AcDbEntity
  8
0
  6
SLD-Сплошная
 62
     7
370
    25
100
AcDbLine
 10
279.27695587
 20
245.9786533975
 30
0.0
 11
272.27695587
 21
245.9786533975
 31
0.0
  0
LINE
  5
272
330
1F
100
AcDbEntity
  8
0
  6
SLD-Сплошная
 62
     7
370
    25
100
AcDbLine
 10
272.27695587
 20
245.9786533975
 30
0.0
 11
272.27695587
 21
238.7568284671
 31
0.0
  0
LINE
  5
273
330
1F
100
AcDbEntity
  8
0
  6
SLD-Сплошная
 62
     7
370
    25
100
AcDbLine
 10
269.27695587
 20
280.9166697369
 30
0.0
 11
269.27695587
 21
238.7568284671
 31
0.0
  0
LINE
  5
274
330
1F
100
AcDbEntity
  8
0
  6
SLD-Сплошная
 62
     7
370
    25
100
AcDbLine
 10
279.27695587
 20
268.6005366072
 30
0.0
 11
279.27695587
 21
259.4540075016
 31
0.0
  0
LINE
  5
275
330
1F
100
AcDbEntity
  8
0
  6
SLD-Сплошная
 62
     7
370
    25
100
AcDbLine
 10
292.27695587
 20
259.4540075016
 30
0.0
 11
279.27695587
 21
259.4540075016
 31
0.0
  0
LINE
  5
276
330
1F
100
AcDbEntity
  8
0
  6
SLD-Сплошная
 62
     7
370
    25
100
AcDbLine
 10
292.27695587
 20
259.4540075016
 30
0.0
 11
292.27695587
 21
257.4540931281
 31
0.0
  0
LINE
  5
277
330
1F
100
AcDbEntity
  8
0
  6
SLD-Сплошная
 62
     7
370
    25
100
AcDbLine
 10
292.27695587
 20
257.4540931281
 30
0.0
 11
279.27695587
 21
257.4540931281
 31
0.0
  0
LINE
  5
278
330
1F
100
AcDbEntity
  8
0
  6
SLD-Сплошная
 62
     7
370
    25
100
AcDbLine
 10
279.27695587
 20
257.4540931281
 30
0.0
 11
279.27695587
 21
248.3075640225
 31
0.0
  0
LINE
  5
279
330
1F
100
AcDbEntity
  8
0
  6
SLD-Сплошная
 62
     7
370
    25
100
AcDbLine
 10
279.27695587
 20
257.4464524056
 30
0.0
 11
292.27695587
 21
257.4464524056
 31
0.0
  0
LINE
  5
27A
330
1F
100
AcDbEntity
  8
0
  6
SLD-Сплошная
 62
     7
370
    25
100
AcDbLine
 10
292.27695587
 20
257.4540931281
 30
0.0
 11
292.27695587
 21
257.4464524056
 31
0.0
  0
LINE
  5
27B
330
1F
100
AcDbEntity
  8
0
  6
SLD-Сплошная
 62
     7
370
    25
100
AcDbLine
 10
292.27695587
 20
242.0433355978
 30
0.0
 11
279.27695587
 21
242.0433355978
 31
0.0
  0
LINE
  5
27C
330
1F
100
AcDbEntity
  8
0
  6
SLD-Сплошная
 62
     7
370
    25
100
AcDbLine
 10
292.27695587
 20
242.0433355978
 30
0.0
 11
292.27695587
 21
257.4464524056
 31
0.0
  0
LINE
  5
27D
330
1F
100
AcDbEntity
  8
0
  6
SLD-Сплошная
 62
     7
370
    25
100
AcDbLine
 10
279.27695587
 20
274.6857710244
 30
0.0
 11
292.27695587
 21
274.6857710244
 31
0.0
  0
LINE
  5
27E
330
1F
100
AcDbEntity
  8
0
  6
SLD-Сплошная
 62
     7
370
    25
100
AcDbLine
 10
292.27695587
 20
259.446366779
 30
0.0
 11
292.27695587
 21
274.6857710244
 31
0.0
  0
LINE
  5
27F
330
1F
100
AcDbEntity
  8
0
  6
SLD-Сплошная
 62
     7
370
    25
100
AcDbLine
 10
292.27695587
 20
241.332088656
 30
0.0
 11
279.27695587
 21
241.332088656
 31
0.0
  0
LINE
  5
280
330
1F
100
AcDbEntity
  8
0
  6
SLD-Сплошная
 62
     7
370
    25
100
AcDbLine
 10
292.27695587
 20
240.3161041764
 30
0.0
 11
279.27695587
 21
240.3161041764
 31
0.0
  0
LINE
  5
281
330
1F
100
AcDbEntity
  8
0
  6
SLD-Сплошная
 62
     7
370
    25
100
AcDbLine
 10
279.27695587
 20
240.3161041764
 30
0.0
 11
279.27695587
 21
235.6695394348
 31
0.0
  0
LINE
  5
282
330
1F
100
AcDbEntity
  8
0
  6
SLD-Сплошная
 62
     7
370
    25
100
AcDbLine
 10
279.27695587
 20
235.6695394348
 30
0.0
 11
272.27695587
 21
235.6695394348
 31
0.0
  0
LINE
  5
283
330
1F
100
AcDbEntity
  8
0
  6
SLD-Сплошная
 62
     7
370
    25
100
AcDbLine
 10
292.27695587
 20
241.332088656
 30
0.0
 11
292.27695587
 21
240.3161041764
 31
0.0
  0
LINE
  5
284
330
1F
100
AcDbEntity
  8
0
  6
SLD-Сплошная
 62
     7
370
    25
100
AcDbLine
 10
279.27695587
 20
241.332088656
 30
0.0
 11
279.27695587
 21
245.9786533975
 31
0.0
  0
LINE
  5
285
330
1F
100
AcDbEntity
  8
0
  6
SLD-Сплошная
 62
     7
370
    25
100
AcDbLine
 10
279.27695587
 20
276.3885885825
 30
0.0
 11
279.27695587
 21
280.8885529466
 31
0.0
  0
LINE
  5
286
330
1F
100
AcDbEntity
  8
0
  6
SLD-Сплошная
 62
     7
370
    25
100
AcDbLine
 10
279.27695587
 20
276.3885885825
 30
0.0
 11
292.27695587
 21
276.3885885825
 31
0.0
  0
LINE
  5
287
330
1F
100
AcDbEntity
  8
0
  6
SLD-Сплошная
 62
     7
370
    25
100
AcDbLine
 10
279.27695587
 20
275.4046586887
 30
0.0
 11
292.27695587
 21
275.4046586887
 31
0.0
  0
LINE
  5
288
330
1F
100
AcDbEntity
  8
0
  6
SLD-Сплошная
 62
     7
370
    25
100
AcDbLine
 10
279.27695587
 20
275.4046586887
 30
0.0
 11
279.27695587
 21
270.9046943246
 31
0.0
  0
LINE
  5
289
330
1F
100
AcDbEntity
  8
0
  6
SLD-Сплошная
 62
     7
370
    25
100
AcDbLine
 10
292.27695587
 20
276.3885885825
 30
0.0
 11
292.27695587
 21
275.4046586887
 31
0.0
  0
LINE
  5
28A
330
1F
100
AcDbEntity
  8
0
  6
SLD-Сплошная
 62
     7
370
    25
100
AcDbLine
 10
258.57695587
 20
275.5166697369
 30
0.0
 11
269.27695587
 21
275.5166697369
 31
0.0
  0
LINE
  5
28B
330
1F
100
AcDbEntity
  8
0
  6
SLD-Сплошная
 62
     7
370
    25
100
AcDbLine
 10
258.57695587
 20
241.0166697369
 30
0.0
 11
269.27695587
 21
241.0166697369
 31
0.0
  0
LINE
  5
28C
330
1F
100
AcDbEntity
  8
0
  6
SLD-Сплошная
 62
     7
370
    25
100
AcDbLine
 10
279.27695587
 20
235.6166697369
 30
0.0
 11
279.27695587
 21
235.6695394348
 31
0.0
  0
LINE
  5
28D
330
1F
100
AcDbEntity
  8
0
  6
SLD-Сплошная
 62
     7
370
    25
100
AcDbLine
 10
272.27695587
 20
238.7568284671
 30
0.0
 11
272.27695587
 21
235.6695394348
 31
0.0
  0
LINE
  5
28E
330
1F
100
AcDbEntity
  8
0
  6
SLD-Сплошная
 62
     7
370
    25
100
AcDbLine
 10
269.27695587
 20
238.7568284671
 30
0.0
 11
269.27695587
 21
235.6166697369
 31
0.0
  0
LINE
  5
28F
330
1F
100
AcDbEntity
  8
0
  6
SLD-Сплошная
 62
     7
370
    25
100
AcDbLine
 10
292.27695587
 20
241.332088656
 30
0.0
 11
292.27695587
 21
242.0433355978
 31
0.0
  0
LINE
  5
290
330
1F
100
AcDbEntity
  8
0
  6
SLD-Сплошная
 62
     7
370
    25
100
AcDbLine
 10
292.27695587
 20
275.4046586887
 30
0.0
 11
292.27695587
 21
274.6857710244
 31
0.0
  0
LINE
  5
291
330
1F
100
AcDbEntity
  8
0
  6
SLD-Сплошная
 62
     7
370
    25
100
AcDbLine
 10
292.27695587
 20
238.8166697369
 30
0.0
 11
292.27695587
 21
240.3161041764
 31
0.0
  0
LINE
  5
292
330
1F
100
AcDbEntity
  8
0
  6
SLD-Сплошная
 62
     7
370
    25
100
AcDbLine
 10
292.27695587
 20
276.3885885825
 30
0.0
 11
292.27695587
 21
277.7166697369
 31
0.0
  0
SPLINE
  5
293
330
1F
100
AcDbEntity
  8
0
  6
SLD-Сплошная
 62
     7
370
    25
100
AcDbSpline
210
0.0
220
0.0
230
1.0
 70
     8
 71
     3
 72
     8
 73
     4
 74
     0
 42
0.00000001
 43
0.00000001
 40
0.0
 40
0.0
 40
0.0
 40
0.0
 40
1.0
 40
1.0
 40
1.0
 40
1.0
 10
221.5304817101722
 20
232.3126860951909
 30
0.0
 10
217.3720667596311
 20
231.5510512712333
 30
0.0
 10
213.1463089761777
 20
231.1673210681838
 30
0.0
 10
208.919405518221
 20
231.1673210681703
 30
0.0
  0
LINE
  5
294
330
1F
100
AcDbEntity
  8
0
  6
SLD-Сплошная
 62
     7
370
    25
100
AcDbLine
 10
221.5304817102
 20
232.3126828548
 30
0.0
 11
221.5304817102
 21
232.3126860952
 31
0.0
  0
LINE
  5
295
330
1F
100
AcDbEntity
  8
0
  6
SLD-Сплошная
 62
     7
370
    25
100
AcDbLine
 10
208.9194055185
 20
231.170096588
 30
0.0
 11
208.9194055182
 21
231.1673210681
 31
0.0
  0
LINE
  5
296
330
1F
100
AcDbEntity
  8
0
  6
SLD-Сплошная
 62
     7
370
    25
100
AcDbLine
 10
221.5304817102
 20
232.3126860952
 30
0.0
 11
221.5304817102
 21
232.3154393629
 31
0.0
  0
LINE
  5
297
330
1F
100
AcDbEntity
  8
0
  6
SLD-Сплошная
 62
     7
370
    25
100
AcDbLine
 10
139.4935309954
 20
302.8442655839
 30
0.0
 11
140.8324630179
 21
302.8442655839
 31
0.0
  0
LINE
  5
298
330
1F
100
AcDbEntity
  8
0
  6
SLD-Сплошная
 62
     7
370
    25
100
AcDbLine
 10
139.4935309954
 20
213.8903804097
 30
0.0
 11
140.8324630179
 21
213.8903804097
 31
0.0
  0
LINE
  5
299
330
1F
100
AcDbEntity
  8
0
  6
SLD-Сплошная
 62
     7
370
    25
100
AcDbLine
 10
139.4935309954
 20
213.8903804097
 30
0.0
 11
139.4935309982
 21
221.8073038152
 31
0.0
  0
LINE
  5
29A
330
1F
100
AcDbEntity
  8
0
  6
SLD-Сплошная
 62
     7
370
    25
100
AcDbLine
 10
139.4935309982
 20
221.8073038152
 30
0.0
 11
127.2130955775
 21
221.8073038152
 31
0.0
  0
LINE
  5
29B
330
1F
100
AcDbEntity
  8
0
  6
SLD-Сплошная
 62
     7
370
    25
100
AcDbLine
 10
127.2130955775
 20
222.9417624757
 30
0.0
 11
127.2130955775
 21
221.8073038152
 31
0.0
  0
LINE
  5
29C
330
1F
100
AcDbEntity
  8
0
  6
SLD-Сплошная
 62
     7
370
    25
100
AcDbLine
 10
139.4935309982
 20
222.9417624757
 30
0.0
 11
127.2130955775
 21
222.9417624757
 31
0.0
  0
LINE
  5
29D
330
1F
100
AcDbEntity
  8
0
  6
SLD-Сплошная
 62
     7
370
    25
100
AcDbLine
 10
139.4935309982
 20
222.9417624757
 30
0.0
 11
139.4935309982
 21
243.7015042878
 31
0.0
  0
LINE
  5
29E
330
1F
100
AcDbEntity
  8
0
  6
SLD-Сплошная
 62
     7
370
    25
100
AcDbLine
 10
139.4935309982
 20
243.7015042878
 30
0.0
 11
127.2130955775
 21
243.7015042878
 31
0.0
  0
LINE
  5
29F
330
1F
100
AcDbEntity
  8
0
  6
SLD-Сплошная
 62
     7
370
    25
100
AcDbLine
 10
127.2130955775
 20
245.5370969593
 30
0.0
 11
127.2130955775
 21
243.7015042878
 31
0.0
  0
LINE
  5
2A0
330
1F
100
AcDbEntity
  8
0
  6
SLD-Сплошная
 62
     7
370
    25
100
AcDbLine
 10
139.4935309982
 20
245.5370969593
 30
0.0
 11
127.2130955775
 21
245.5370969593
 31
0.0
  0
LINE
  5
2A1
330
1F
100
AcDbEntity
  8
0
  6
SLD-Сплошная
 62
     7
370
    25
100
AcDbLine
 10
139.4935309982
 20
245.5370969593
 30
0.0
 11
139.4935309982
 21
271.1975490344
 31
0.0
  0
LINE
  5
2A2
330
1F
100
AcDbEntity
  8
0
  6
SLD-Сплошная
 62
     7
370
    25
100
AcDbLine
 10
139.4935309982
 20
271.1975490344
 30
0.0
 11
127.2130955775
 21
271.1975490344
 31
0.0
  0
LINE
  5
2A3
330
1F
100
AcDbEntity
  8
0
  6
SLD-Сплошная
 62
     7
370
    25
100
AcDbLine
 10
127.2130955775
 20
273.0331417059
 30
0.0
 11
127.2130955775
 21
271.1975490344
 31
0.0
  0
LINE
  5
2A4
330
1F
100
AcDbEntity
  8
0
  6
SLD-Сплошная
 62
     7
370
    25
100
AcDbLine
 10
139.4935309982
 20
273.0331417059
 30
0.0
 11
127.2130955775
 21
273.0331417059
 31
0.0
  0
LINE
  5
2A5
330
1F
100
AcDbEntity
  8
0
  6
SLD-Сплошная
 62
     7
370
    25
100
AcDbLine
 10
139.4935309982
 20
273.0331417059
 30
0.0
 11
139.4935309982
 21
293.792883518
 31
0.0
  0
LINE
  5
2A6
330
1F
100
AcDbEntity
  8
0
  6
SLD-Сплошная
 62
     7
370
    25
100
AcDbLine
 10
139.4935309982
 20
293.792883518
 30
0.0
 11
127.2130955775
 21
293.792883518
 31
0.0
  0
LINE
  5
2A7
330
1F
100
AcDbEntity
  8
0
  6
SLD-Сплошная
 62
     7
370
    25
100
AcDbLine
 10
127.2130955775
 20
294.9273421785
 30
0.0
 11
127.2130955775
 21
293.792883518
 31
0.0
  0
LINE
  5
2A8
330
1F
100
AcDbEntity
  8
0
  6
SLD-Сплошная
 62
     7
370
    25
100
AcDbLine
 10
139.4935309982
 20
294.9273421785
 30
0.0
 11
127.2130955775
 21
294.9273421785
 31
0.0
  0
LINE
  5
2A9
330
1F
100
AcDbEntity
  8
0
  6
SLD-Сплошная
 62
     7
370
    25
100
AcDbLine
 10
139.4935309982
 20
294.9273421785
 30
0.0
 11
139.4935309954
 21
302.8442655839
 31
0.0
  0
LINE
  5
2AA
330
1F
100
AcDbEntity
  8
0
  6
SLD-Сплошная
 62
     7
370
    25
100
AcDbLine
 10
144.8324630179
 20
213.8673229968
 30
0.0
 11
144.8324630179
 21
302.8673229968
 31
0.0
  0
SPLINE
  5
2AB
330
1F
100
AcDbEntity
  8
0
  6
SLD-Сплошная
 62
     7
370
    25
100
AcDbSpline
210
0.0
220
0.0
230
1.0
 70
     8
 71
     3
 72
    11
 73
     7
 74
     0
 42
0.00000001
 43
0.00000001
 40
-0.0972500810766061
 40
-0.0972500810766061
 40
-0.0972500810766061
 40
-0.0972500810766061
 40
0.0
 40
0.0
 40
0.0
 40
1.0
 40
1.0
 40
1.0
 40
1.0
 10
139.4935231945194
 20
245.537094940448
 30
0.0
 10
139.4692157490483
 20
245.564270972907
 30
0.0
 10
139.4449083035773
 20
245.591447005366
 30
0.0
 10
139.4206008581063
 20
245.618623037825
 30
0.0
 10
139.1706530410773
 20
245.8980678686999
 30
0.0
 10
138.9209801603979
 20
246.1775846535338
 30
0.0
 10
138.6716125886913
 20
246.457181341187
 30
0.0
  0
SPLINE
  5
2AC
330
1F
100
AcDbEntity
  8
0
  6
SLD-Сплошная
 62
     7
370
    25
100
AcDbSpline
210
0.0
220
0.0
230
1.0
 70
     8
 71
     3
 72
     8
 73
     4
 74
     0
 42
0.00000001
 43
0.00000001
 40
0.0
 40
0.0
 40
0.0
 40
0.0
 40
1.0
 40
1.0
 40
1.0
 40
1.0
 10
138.6716125888219
 20
246.4571813412187
 30
0.0
 10
138.6122343388762
 20
246.5237576078817
 30
0.0
 10
138.5528736568077
 20
246.5903381427025
 30
0.0
 10
138.493530995044
 20
246.6569230555964
 30
0.0
  0
LINE
  5
2AD
330
1F
100
AcDbEntity
  8
0
  6
SLD-Сплошная
 62
     7
370
    25
100
AcDbLine
 10
138.493530995
 20
270.0777229381
 30
0.0
 11
138.493530995
 21
246.6569230556
 31
0.0
  0
SPLINE
  5
2AE
330
1F
100
AcDbEntity
  8
0
  6
SLD-Сплошная
 62
     7
370
    25
100
AcDbSpline
210
0.0
220
0.0
230
1.0
 70
     8
 71
     3
 72
     8
 73
     4
 74
     0
 42
0.00000001
 43
0.00000001
 40
0.0
 40
0.0
 40
0.0
 40
0.0
 40
1.0
 40
1.0
 40
1.0
 40
1.0
 10
138.6716125888377
 20
270.2774646524787
 30
0.0
 10
138.6122343388867
 20
270.2108883858099
 30
0.0
 10
138.5528736568128
 20
270.1443078509831
 30
0.0
 10
138.4935309950439
 20
270.0777229380833
 30
0.0
  0
SPLINE
  5
2AF
330
1F
100
AcDbEntity
  8
0
  6
SLD-Сплошная
 62
     7
370
    25
100
AcDbSpline
210
0.0
220
0.0
230
1.0
 70
     8
 71
     3
 72
    11
 73
     7
 74
     0
 42
0.00000001
 43
0.00000001
 40
0.0
 40
0.0
 40
0.0
 40
0.0
 40
1.0
 40
1.0
 40
1.0
 40
1.097249905496978
 40
1.097249905496978
 40
1.097249905496978
 40
1.097249905496978
 10
138.6716125886939
 20
270.2774646524958
 30
0.0
 10
138.9209796941912
 20
270.557060817427
 30
0.0
 10
139.1706525898146
 20
270.8365776204553
 30
0.0
 10
139.4206008581071
 20
271.1160229558568
 30
0.0
 10
139.4449083035776
 20
271.1431989883161
 30
0.0
 10
139.4692157490483
 20
271.1703750207755
 30
0.0
 10
139.4935231945189
 20
271.1975510532349
 30
0.0
  0
ARC
  5
2B0
330
1F
100
AcDbEntity
  8
0
  6
SLD-Сплошная
 62
     7
370
    25
100
AcDbCircle
 10
240.9366822204
 20
269.2188992236
 30
0.0
 40
116.1631693670255
100
AcDbArc
 50
191.1995466307
 51
191.7631649233
  0
LINE
  5
2B1
330
1F
100
AcDbEntity
  8
0
  6
SLD-Сплошная
 62
     7
370
    25
100
AcDbLine
 10
138.493530995
 20
246.6569230556
 30
0.0
 11
126.9856438364
 21
246.6569230556
 31
0.0
  0
LINE
  5
2B2
330
1F
100
AcDbEntity
  8
0
  6
SLD-Сплошная
 62
     7
370
    25
100
AcDbLine
 10
138.493530995
 20
270.0777229381
 30
0.0
 11
126.9856438364
 21
270.0777229381
 31
0.0
  0
ARC
  5
2B3
330
1F
100
AcDbEntity
  8
0
  6
SLD-Сплошная
 62
     7
370
    25
100
AcDbCircle
 10
240.9366822314
 20
247.5157467678
 30
0.0
 40
116.1631693782777
100
AcDbArc
 50
168.2368350767
 51
168.8004533693
  0
ARC
  5
2B4
330
1F
100
AcDbEntity
  8
0
  6
SLD-Сплошная
 62
     7
370
    25
100
AcDbCircle
 10
502.1423609815
 20
257.3010125628
 30
0.0
 40
377.4340166977791
100
AcDbArc
 50
186.1745230198
 51
186.2971755091
  0
SPLINE
  5
2B5
330
1F
100
AcDbEntity
  8
0
  6
SLD-Сплошная
 62
     7
370
    25
100
AcDbSpline
210
0.0
220
0.0
230
1.0
 70
     8
 71
     3
 72
     8
 73
     4
 74
     0
 42
0.00000001
 43
0.00000001
 40
0.0
 40
0.0
 40
0.0
 40
0.0
 40
1.0
 40
1.0
 40
1.0
 40
1.0
 10
126.8978811442795
 20
216.7052330740695
 30
0.0
 10
126.8942143783605
 20
216.7391265900626
 30
0.0
 10
126.8905211198614
 20
216.7731520544283
 30
0.0
 10
126.8868013841276
 20
216.8073094024384
 30
0.0
  0
ARC
  5
2B6
330
1F
100
AcDbEntity
  8
0
  6
SLD-Сплошная
 62
     7
370
    25
100
AcDbCircle
 10
508.0605527379
 20
258.3171369296
 30
0.0
 40
383.4273001527937
100
AcDbArc
 50
186.1673582063
 51
186.2150200926
  0
SPLINE
  5
2B7
330
1F
100
AcDbEntity
  8
0
  6
SLD-Сплошная
 62
     7
370
    25
100
AcDbSpline
210
0.0
220
0.0
230
1.0
 70
     8
 71
     3
 72
    10
 73
     6
 74
     0
 42
0.00000001
 43
0.00000001
 40
0.0
 40
0.0
 40
0.0
 40
0.0
 40
0.5
 40
0.5
 40
1.0
 40
1.0
 40
1.0
 40
1.0
 10
126.8524030374077
 20
217.1244057222174
 30
0.0
 10
126.8336412747044
 20
217.2980329523148
 30
0.0
 10
126.8152112590296
 20
217.4709843592511
 30
0.0
 10
126.779025507188
 20
217.8135976408484
 30
0.0
 10
126.761246502116
 20
217.9835640988187
 30
0.0
 10
126.7436154476887
 20
218.1531207776211
 30
0.0
  0
SPLINE
  5
2B8
330
1F
100
AcDbEntity
  8
0
  6
SLD-Сплошная
 62
     7
370
    25
100
AcDbSpline
210
0.0
220
0.0
230
1.0
 70
     8
 71
     3
 72
    11
 73
     7
 74
     0
 42
0.00000001
 43
0.00000001
 40
0.0
 40
0.0
 40
0.0
 40
0.0
 40
0.2515007347517602
 40
0.5020008783550034
 40
0.7515005777276687
 40
1.0
 40
1.0
 40
1.0
 40
1.0
 10
126.0965657346304
 20
224.8591298010387
 30
0.0
 10
126.1465797286398
 20
224.2965426689697
 30
0.0
 10
126.2464087368831
 20
223.1736066476153
 30
0.0
 10
126.4053876724014
 20
221.4934269061655
 30
0.0
 10
126.5700319044406
 20
219.8205631564269
 30
0.0
 10
126.6858317981867
 20
218.7081901360209
 30
0.0
 10
126.743615447684
 20
218.1531207776471
 30
0.0
  0
SPLINE
  5
2B9
330
1F
100
AcDbEntity
  8
0
  6
SLD-Сплошная
 62
     7
370
    25
100
AcDbSpline
210
0.0
220
0.0
230
1.0
 70
     8
 71
     3
 72
    17
 73
    13
 74
     0
 42
0.00000001
 43
0.00000001
 40
0.0
 40
0.0
 40
0.0
 40
0.0
 40
0.0616726530807659
 40
0.1234969914829503
 40
0.1859988773031961
 40
0.2496874055737813
 40
0.3738952238938391
 40
0.4995165702673675
 40
0.6251972233199543
 40
0.749531218768355
 40
0.8759958220480194
 40
1.0
 40
1.0
 40
1.0
 40
1.0
 10
125.6944141960331
 20
229.7928297796649
 30
0.0
 10
125.6944764509152
 20
229.7920205591488
 30
0.0
 10
125.6946011137967
 20
229.7904001278199
 30
0.0
 10
125.6956035377549
 20
229.7773734127491
 30
0.0
 10
125.6972039050269
 20
229.7565819128774
 30
0.0
 10
125.7001507855779
 20
229.7183186937871
 30
0.0
 10
125.7052118076496
 20
229.6526750922097
 30
0.0
 10
125.7133036645769
 20
229.5477940493739
 30
0.0
 10
125.7231039199009
 20
229.42089941054
 30
0.0
 10
125.7344973628039
 20
229.2734003529802
 30
0.0
 10
125.7470506250432
 20
229.1109222240376
 30
0.0
 10
125.7561663598694
 20
228.9928440440051
 30
0.0
 10
125.7606794540681
 20
228.9343849115855
 30
0.0
  0
ARC
  5
2BA
330
1F
100
AcDbEntity
  8
0
  6
SLD-Сплошная
 62
     7
370
    25
100
AcDbCircle
 10
509.5980903435
 20
258.3673229968
 30
0.0
 40
384.9656273255352
100
AcDbArc
 50
184.0591073009
 51
184.2567565689
  0
LINE
  5
2BB
330
1F
100
AcDbEntity
  8
0
  6
SLD-Сплошная
 62
     7
370
    25
100
AcDbLine
 10
125.5981271636
 20
231.1173229968
 30
0.0
 11
125.5981271636
 21
258.3673229968
 31
0.0
  0
LINE
  5
2BC
330
1F
100
AcDbEntity
  8
0
  6
SLD-Сплошная
 62
     7
370
    25
100
AcDbLine
 10
125.5981271636
 20
258.3673229968
 30
0.0
 11
125.5981271636
 21
285.6173229968
 31
0.0
  0
ARC
  5
2BD
330
1F
100
AcDbEntity
  8
0
  6
SLD-Сплошная
 62
     7
370
    25
100
AcDbCircle
 10
509.5980903435
 20
258.3673229968
 30
0.0
 40
384.9656273255351
100
AcDbArc
 50
175.7432434311
 51
175.9408926991
  0
SPLINE
  5
2BE
330
1F
100
AcDbEntity
  8
0
  6
SLD-Сплошная
 62
     7
370
    25
100
AcDbSpline
210
0.0
220
0.0
230
1.0
 70
     8
 71
     3
 72
    17
 73
    13
 74
     0
 42
0.00000001
 43
0.00000001
 40
0.0
 40
0.0
 40
0.0
 40
0.0
 40
0.0619317794770349
 40
0.1239646264673892
 40
0.1866355033659505
 40
0.2504653188395567
 40
0.3746149560141979
 40
0.5003235463447647
 40
0.6258117546981559
 40
0.7501607023642336
 40
0.876314507535963
 40
1.0
 40
1.0
 40
1.0
 40
1.0
 10
125.7606794540676
 20
287.8002610820915
 30
0.0
 10
125.7584164020411
 20
287.7709445412258
 30
0.0
 10
125.7538866048755
 20
287.7122636173382
 30
0.0
 10
125.747275672598
 20
287.6266563373148
 30
0.0
 10
125.7408242416942
 20
287.5431355831284
 30
0.0
 10
125.7326281563769
 20
287.4370428785088
 30
0.0
 10
125.7231275665532
 20
287.3140479657355
 30
0.0
 10
125.7133286480566
 20
287.1871687652513
 30
0.0
 10
125.7052170289497
 20
287.082031587146
 30
0.0
 10
125.6991824380319
 20
287.0037635778268
 30
0.0
 10
125.6951699933758
 20
286.9516382919649
 30
0.0
 10
125.6946644636698
 20
286.9450686047015
 30
0.0
 10
125.6944141960329
 20
286.9418162140159
 30
0.0
  0
SPLINE
  5
2BF
330
1F
100
AcDbEntity
  8
0
  6
SLD-Сплошная
 62
     7
370
    25
100
AcDbSpline
210
0.0
220
0.0
230
1.0
 70
     8
 71
     3
 72
    11
 73
     7
 74
     0
 42
0.00000001
 43
0.00000001
 40
0.0
 40
0.0
 40
0.0
 40
0.0
 40
0.2515730509929819
 40
0.5020973328946157
 40
0.7515729425736383
 40
1.0
 40
1.0
 40
1.0
 40
1.0
 10
126.7436154476836
 20
298.5815252160338
 30
0.0
 10
126.6851253940916
 20
298.019589455903
 30
0.0
 10
126.5683891228833
 20
296.8980605588047
 30
0.0
 10
126.4031778598395
 20
295.2183164769951
 30
0.0
 10
126.2449578235709
 20
293.5449985203332
 30
0.0
 10
126.1459602700344
 20
292.4312284582392
 30
0.0
 10
126.0965657346317
 20
291.8755161926589
 30
0.0
  0
SPLINE
  5
2C0
330
1F
100
AcDbEntity
  8
0
  6
SLD-Сплошная
 62
     7
370
    25
100
AcDbSpline
210
0.0
220
0.0
230
1.0
 70
     8
 71
     3
 72
    10
 73
     6
 74
     0
 42
0.00000001
 43
0.00000001
 40
0.0
 40
0.0
 40
0.0
 40
0.0
 40
0.5
 40
0.5
 40
1.0
 40
1.0
 40
1.0
 40
1.0
 10
126.8524030210492
 20
299.6102401143557
 30
0.0
 10
126.8336420448833
 20
299.4366176639598
 30
0.0
 10
126.815213098542
 20
299.2636752094591
 30
0.0
 10
126.7790189474553
 20
298.9209987593099
 30
0.0
 10
126.7612308068921
 20
298.7509612153308
 30
0.0
 10
126.7436154476861
 20
298.5815252160436
 30
0.0
  0
ARC
  5
2C1
330
1F
100
AcDbEntity
  8
0
  6
SLD-Сплошная
 62
     7
370
    25
100
AcDbCircle
 10
508.0605532441
 20
258.4175090094
 30
0.0
 40
383.4273006618662
100
AcDbArc
 50
173.7849799075
 51
173.8326418159
  0
SPLINE
  5
2C2
330
1F
100
AcDbEntity
  8
0
  6
SLD-Сплошная
 62
     7
370
    25
100
AcDbSpline
210
0.0
220
0.0
230
1.0
 70
     8
 71
     3
 72
     8
 73
     4
 74
     0
 42
0.00000001
 43
0.00000001
 40
0.0
 40
0.0
 40
0.0
 40
0.0
 40
1.0
 40
1.0
 40
1.0
 40
1.0
 10
126.8868013841285
 20
299.92733659124
 30
0.0
 10
126.8905211198623
 20
299.9614939392497
 30
0.0
 10
126.8942143783612
 20
299.995519403615
 30
0.0
 10
126.8978811442802
 20
300.0294129196076
 30
0.0
  0
ARC
  5
2C3
330
1F
100
AcDbEntity
  8
0
  6
SLD-Сплошная
 62
     7
370
    25
100
AcDbCircle
 10
502.1423603647
 20
259.4336334989
 30
0.0
 40
377.4340160772529
100
AcDbArc
 50
173.7028244909
 51
173.8254769804
  0
LINE
  5
2C4
330
1F
100
AcDbEntity
  8
0
  6
SLD-Сплошная
 62
     7
370
    25
100
AcDbLine
 10
126.9856438364
 20
293.6038557011
 30
0.0
 11
126.9856438364
 21
300.8326013106
 31
0.0
  0
ARC
  5
2C5
330
1F
100
AcDbEntity
  8
0
  6
SLD-Сплошная
 62
     7
370
    25
100
AcDbCircle
 10
284.3191390558
 20
267.2461235668
 30
0.0
 40
159.5260441470972
100
AcDbArc
 50
170.0073626342
 51
170.4896794695
  0
ARC
  5
2C6
330
1F
100
AcDbEntity
  8
0
  6
SLD-Сплошная
 62
     7
370
    25
100
AcDbCircle
 10
458.9799980241
 20
253.8687925291
 30
0.0
 40
334.1604563682703
100
AcDbArc
 50
173.1381489746
 51
173.4726868133
  0
LINE
  5
2C7
330
1F
100
AcDbEntity
  8
0
  6
SLD-Сплошная
 62
     7
370
    25
100
AcDbLine
 10
126.9856438364
 20
272.9072726682
 30
0.0
 11
126.9856438364
 21
291.855097795
 31
0.0
  0
ARC
  5
2C8
330
1F
100
AcDbEntity
  8
0
  6
SLD-Сплошная
 62
     7
370
    25
100
AcDbCircle
 10
132.9903348761
 20
262.3249340571
 30
0.0
 40
12.1672595502293
100
AcDbArc
 50
118.3475298687
 51
119.5716909493
  0
LINE
  5
2C9
330
1F
100
AcDbEntity
  8
0
  6
SLD-Сплошная
 62
     7
370
    25
100
AcDbLine
 10
126.9856438364
 20
246.6569230556
 30
0.0
 11
126.9856438364
 21
270.0777229381
 31
0.0
  0
ARC
  5
2CA
330
1F
100
AcDbEntity
  8
0
  6
SLD-Сплошная
 62
     7
370
    25
100
AcDbCircle
 10
132.9903348759
 20
254.4097119362
 30
0.0
 40
12.16725954984262
100
AcDbArc
 50
240.4283090506
 51
241.6524701313
  0
LINE
  5
2CB
330
1F
100
AcDbEntity
  8
0
  6
SLD-Сплошная
 62
     7
370
    25
100
AcDbLine
 10
126.9856438364
 20
224.8795481987
 30
0.0
 11
126.9856438364
 21
243.8273733255
 31
0.0
  0
ARC
  5
2CC
330
1F
100
AcDbEntity
  8
0
  6
SLD-Сплошная
 62
     7
370
    25
100
AcDbCircle
 10
458.9799980167
 20
262.8658534637
 30
0.0
 40
334.1604563608482
100
AcDbArc
 50
186.5273131867
 51
186.8618510254
  0
ARC
  5
2CD
330
1F
100
AcDbEntity
  8
0
  6
SLD-Сплошная
 62
     7
370
    25
100
AcDbCircle
 10
284.3191390628
 20
249.4885224281
 30
0.0
 40
159.5260441542227
100
AcDbArc
 50
189.5103205305
 51
189.9926373658
  0
LINE
  5
2CE
330
1F
100
AcDbEntity
  8
0
  6
SLD-Сплошная
 62
     7
370
    25
100
AcDbLine
 10
126.9856438364
 20
215.9020446831
 30
0.0
 11
126.9856438364
 21
223.1307902926
 31
0.0
  0
SPLINE
  5
2CF
330
1F
100
AcDbEntity
  8
0
  6
SLD-Сплошная
 62
     7
370
    25
100
AcDbSpline
210
0.0
220
0.0
230
1.0
 70
     8
 71
     3
 72
    11
 73
     7
 74
     0
 42
0.00000001
 43
0.00000001
 40
-0.0972500810765764
 40
-0.0972500810765764
 40
-0.0972500810765764
 40
-0.0972500810765764
 40
0.0
 40
0.0
 40
0.0
 40
1.0
 40
1.0
 40
1.0
 40
1.0
 10
139.4935231945192
 20
222.9417589822042
 30
0.0
 10
139.4692157490483
 20
222.9887853266349
 30
0.0
 10
139.4449083035773
 20
223.0358116710656
 30
0.0
 10
139.4206008581063
 20
223.0828380154962
 30
0.0
 10
139.1706530410773
 20
223.5663989946753
 30
0.0
 10
138.9209801603979
 20
224.0500844854631
 30
0.0
 10
138.6716125886913
 20
224.533908242847
 30
0.0
  0
SPLINE
  5
2D0
330
1F
100
AcDbEntity
  8
0
  6
SLD-Сплошная
 62
     7
370
    25
100
AcDbSpline
210
0.0
220
0.0
230
1.0
 70
     8
 71
     3
 72
     8
 73
     4
 74
     0
 42
0.00000001
 43
0.00000001
 40
0.0
 40
0.0
 40
0.0
 40
0.0
 40
1.0
 40
1.0
 40
1.0
 40
1.0
 10
138.6716125888219
 20
224.5339082429045
 30
0.0
 10
138.6122343388762
 20
224.6491141123301
 30
0.0
 10
138.5528736568077
 20
224.7643273675233
 30
0.0
 10
138.4935309950441
 20
224.8795481986854
 30
0.0
  0
LINE
  5
2D1
330
1F
100
AcDbEntity
  8
0
  6
SLD-Сплошная
 62
     7
370
    25
100
AcDbLine
 10
138.4935309954
 20
243.7015042878
 30
0.0
 11
138.493530995
 21
224.8795481987
 31
0.0
  0
LINE
  5
2D2
330
1F
100
AcDbEntity
  8
0
  6
SLD-Сплошная
 62
     7
370
    25
100
AcDbLine
 10
138.493530995
 20
291.855097795
 30
0.0
 11
138.4935309954
 21
273.0331417059
 31
0.0
  0
SPLINE
  5
2D3
330
1F
100
AcDbEntity
  8
0
  6
SLD-Сплошная
 62
     7
370
    25
100
AcDbSpline
210
0.0
220
0.0
230
1.0
 70
     8
 71
     3
 72
     8
 73
     4
 74
     0
 42
0.00000001
 43
0.00000001
 40
0.0
 40
0.0
 40
0.0
 40
0.0
 40
1.0
 40
1.0
 40
1.0
 40
1.0
 10
138.6716125888374
 20
292.2007377508056
 30
0.0
 10
138.6122343388864
 20
292.0855318813698
 30
0.0
 10
138.5528736568126
 20
291.9703186261663
 30
0.0
 10
138.4935309950437
 20
291.855097794994
 30
0.0
  0
SPLINE
  5
2D4
330
1F
100
AcDbEntity
  8
0
  6
SLD-Сплошная
 62
     7
370
    25
100
AcDbSpline
210
0.0
220
0.0
230
1.0
 70
     8
 71
     3
 72
    11
 73
     7
 74
     0
 42
0.00000001
 43
0.00000001
 40
0.0
 40
0.0
 40
0.0
 40
0.0
 40
1.0
 40
1.0
 40
1.0
 40
1.097249905496996
 40
1.097249905496996
 40
1.097249905496996
 40
1.097249905496996
 10
138.6716125886937
 20
292.2007377508353
 30
0.0
 10
138.920979694191
 20
292.6845606036822
 30
0.0
 10
139.1706525898144
 20
293.1682461259618
 30
0.0
 10
139.4206008581069
 20
293.6518079781848
 30
0.0
 10
139.4449083035774
 20
293.6988343226154
 30
0.0
 10
139.4692157490481
 20
293.745860667046
 30
0.0
 10
139.4935231945186
 20
293.7928870114766
 30
0.0
  0
LINE
  5
2D5
330
1F
100
AcDbEntity
  8
0
  6
SLD-Сплошная
 62
     7
370
    25
100
AcDbLine
 10
138.493530995
 20
224.8795481987
 30
0.0
 11
126.9856438364
 21
224.8795481987
 31
0.0
  0
LINE
  5
2D6
330
1F
100
AcDbEntity
  8
0
  6
SLD-Сплошная
 62
     7
370
    25
100
AcDbLine
 10
138.493530995
 20
291.855097795
 30
0.0
 11
126.9856438364
 21
291.855097795
 31
0.0
  0
LINE
  5
2D7
330
1F
100
AcDbEntity
  8
0
  6
SLD-Сплошная
 62
     7
370
    25
100
AcDbLine
 10
123.7769558702
 20
231.1173229968
 30
0.0
 11
123.7769558702
 21
258.3673229968
 31
0.0
  0
LINE
  5
2D8
330
1F
100
AcDbEntity
  8
0
  6
SLD-Сплошная
 62
     7
370
    25
100
AcDbLine
 10
123.7769558702
 20
258.3673229968
 30
0.0
 11
123.7769558702
 21
285.6173229968
 31
0.0
  0
SPLINE
  5
2D9
330
1F
100
AcDbEntity
  8
0
  6
SLD-Сплошная
 62
     7
370
    25
100
AcDbSpline
210
0.0
220
0.0
230
1.0
 70
     8
 71
     3
 72
    11
 73
     7
 74
     0
 42
0.00000001
 43
0.00000001
 40
-0.0891561999938193
 40
-0.0891561999938193
 40
-0.0891561999938193
 40
-0.0891561999938193
 40
0.0
 40
0.0
 40
0.0
 40
1.0
 40
1.0
 40
1.0
 40
1.0
 10
138.4935267677251
 20
215.9020426243721
 30
0.0
 10
138.5207990436778
 20
215.8471456275219
 30
0.0
 10
138.5480713196304
 20
215.7922486306717
 30
0.0
 10
138.575343595583
 20
215.7373516338214
 30
0.0
 10
138.8812368027242
 20
215.1216121019212
 30
0.0
 10
139.1873063180027
 20
214.5059584079069
 30
0.0
 10
139.4935309954444
 20
213.8903804097428
 30
0.0
  0
LINE
  5
2DA
330
1F
100
AcDbEntity
  8
0
  6
SLD-Сплошная
 62
     7
370
    25
100
AcDbLine
 10
138.4935309954
 20
221.8073038152
 30
0.0
 11
138.493530995
 21
215.9020446831
 31
0.0
  0
SPLINE
  5
2DB
330
1F
100
AcDbEntity
  8
0
  6
SLD-Сплошная
 62
     7
370
    25
100
AcDbSpline
210
0.0
220
0.0
230
1.0
 70
     8
 71
     3
 72
    11
 73
     7
 74
     0
 42
0.00000001
 43
0.00000001
 40
0.0
 40
0.0
 40
0.0
 40
0.0
 40
1.0
 40
1.0
 40
1.0
 40
1.08915619713255
 40
1.08915619713255
 40
1.08915619713255
 40
1.08915619713255
 10
139.4935309954469
 20
302.8442655839376
 30
0.0
 10
139.1873063061334
 20
302.2286875619113
 30
0.0
 10
138.8812368125455
 20
301.6130339115246
 30
0.0
 10
138.5753435955784
 20
300.9972943598608
 30
0.0
 10
138.548071319625
 20
300.9423973630103
 30
0.0
 10
138.5207990436715
 20
300.8875003661599
 30
0.0
 10
138.4935267677181
 20
300.8326033693094
 30
0.0
  0
LINE
  5
2DC
330
1F
100
AcDbEntity
  8
0
  6
SLD-Сплошная
 62
     7
370
    25
100
AcDbLine
 10
138.493530995
 20
300.8326013106
 30
0.0
 11
138.4935309954
 21
294.9273421785
 31
0.0
  0
LINE
  5
2DD
330
1F
100
AcDbEntity
  8
0
  6
SLD-Сплошная
 62
     7
370
    25
100
AcDbLine
 10
138.493530995
 20
215.9020446831
 30
0.0
 11
126.9856438364
 21
215.9020446831
 31
0.0
  0
LINE
  5
2DE
330
1F
100
AcDbEntity
  8
0
  6
SLD-Сплошная
 62
     7
370
    25
100
AcDbLine
 10
126.9856438364
 20
300.8326013106
 30
0.0
 11
138.493530995
 21
300.8326013106
 31
0.0
  0
SPLINE
  5
2DF
330
1F
100
AcDbEntity
  8
0
  6
SLD-Сплошная
 62
     7
370
    25
100
AcDbSpline
210
0.0
220
0.0
230
1.0
 70
    24
 71
     3
 72
    14
 73
    10
 74
     0
 42
0.00000001
 43
0.00000001
 40
0.0
 40
0.0
 40
0.0
 40
0.0
 40
0.25
 40
0.25
 40
0.5
 40
0.5
 40
0.75
 40
0.75
 40
1.0
 40
1.0
 40
1.0
 40
1.0
 10
123.3147100672293
 20
303.325714918597
 30
0.0
 10
123.3147100672273
 20
303.3257149185972
 30
0.0
 10
123.3180062953351
 20
303.3003231433046
 30
0.0
 10
123.3306542094783
 20
303.2028926914153
 30
0.0
 10
123.3400000636159
 20
303.1308989395915
 30
0.0
 10
123.3632130052639
 20
302.9520830994089
 30
0.0
 10
123.3770693893813
 20
302.845343462285
 30
0.0
 10
123.4070245996479
 20
302.6145900242319
 30
0.0
 10
123.4231096135779
 20
302.4906826227438
 30
0.0
 10
123.4389918076841
 20
302.3683375995831
 30
0.0
  0
SPLINE
  5
2E0
330
1F
100
AcDbEntity
  8
0
  6
SLD-Сплошная
 62
     7
370
    25
100
AcDbSpline
210
0.0
220
0.0
230
1.0
 70
    24
 71
     3
 72
    14
 73
    10
 74
     0
 42
0.00000001
 43
0.00000001
 40
0.0
 40
0.0
 40
0.0
 40
0.0
 40
0.25
 40
0.25
 40
0.5
 40
0.5
 40
0.75
 40
0.75
 40
1.0
 40
1.0
 40
1.0
 40
1.0
 10
123.4389918076873
 20
214.3663083940973
 30
0.0
 10
123.4231096135791
 20
214.2439633709331
 30
0.0
 10
123.4070245996474
 20
214.1200559694485
 30
0.0
 10
123.3770693893789
 20
213.8893025313934
 30
0.0
 10
123.3632130052636
 20
213.7825628942699
 30
0.0
 10
123.3400000636191
 20
213.6037470540857
 30
0.0
 10
123.3306542094813
 20
213.5317533022632
 30
0.0
 10
123.3180062953339
 20
213.4343228503732
 30
0.0
 10
123.3147100672283
 20
213.4089310750835
 30
0.0
 10
123.3147100672281
 20
213.4089310750829
 30
0.0
  0
LINE
  5
2E1
330
1F
100
AcDbEntity
  8
0
  6
SLD-Сплошная
 62
     7
370
    25
100
AcDbLine
 10
124.862684007
 20
225.333411171
 30
0.0
 11
123.4389918077
 21
214.3663083941
 31
0.0
  0
LINE
  5
2E2
330
1F
100
AcDbEntity
  8
0
  6
SLD-Сплошная
 62
     7
370
    25
100
AcDbLine
 10
123.4389918077
 20
302.3683375996
 30
0.0
 11
124.862684007
 21
291.4012348226
 31
0.0
  0
LINE
  5
2E3
330
1F
100
AcDbEntity
  8
0
  6
SLD-Сплошная
 62
     7
370
    25
100
AcDbLine
 10
140.8324630179
 20
302.8442655839
 30
0.0
 11
140.8324630179
 21
303.9154801692
 31
0.0
  0
LINE
  5
2E4
330
1F
100
AcDbEntity
  8
0
  6
SLD-Сплошная
 62
     7
370
    25
100
AcDbLine
 10
140.8324630179
 20
212.8191658245
 30
0.0
 11
140.8324630179
 21
213.8903804097
 31
0.0
  0
LINE
  5
2E5
330
1F
100
AcDbEntity
  8
0
  6
SLD-Сплошная
 62
     7
370
    25
100
AcDbLine
 10
140.8324630179
 20
212.4633801538
 30
0.0
 11
140.8324630179
 21
212.8191658245
 31
0.0
  0
SPLINE
  5
2E6
330
1F
100
AcDbEntity
  8
0
  6
SLD-Сплошная
 62
     7
370
    25
100
AcDbSpline
210
0.0
220
0.0
230
1.0
 70
    24
 71
     3
 72
    14
 73
    10
 74
     0
 42
0.00000001
 43
0.00000001
 40
0.0
 40
0.0
 40
0.0
 40
0.0
 40
0.1249999999999997
 40
0.1249999999999997
 40
0.2499999999999993
 40
0.2499999999999993
 40
0.4999999999999987
 40
0.4999999999999987
 40
1.0
 40
1.0
 40
1.0
 40
1.0
 10
124.8626840070107
 20
291.4012348226368
 30
0.0
 10
124.8728613730423
 20
291.3228357000469
 30
0.0
 10
124.8877477822573
 20
291.2081614889236
 30
0.0
 10
124.9268641180637
 20
290.9068373155879
 30
0.0
 10
124.9577529203653
 20
290.6688921546469
 30
0.0
 10
125.0240223410263
 20
290.1584001060792
 30
0.0
 10
125.0559503117887
 20
289.9124499372318
 30
0.0
 10
125.1793275186039
 20
288.962040496135
 30
0.0
 10
125.2583895584877
 20
288.3530032916169
 30
0.0
 10
125.3317050860003
 20
287.7882330935655
 30
0.0
  0
SPLINE
  5
2E7
330
1F
100
AcDbEntity
  8
0
  6
SLD-Сплошная
 62
     7
370
    25
100
AcDbSpline
210
0.0
220
0.0
230
1.0
 70
    24
 71
     3
 72
    18
 73
    14
 74
     0
 42
0.00000001
 43
0.00000001
 40
0.0
 40
0.0
 40
0.0
 40
0.0
 40
0.1250000000000032
 40
0.1250000000000032
 40
0.1875000000000034
 40
0.1875000000000034
 40
0.2187500000000025
 40
0.2187500000000025
 40
0.2500000000000016
 40
0.2500000000000016
 40
0.5000000000000001
 40
0.5000000000000001
 40
1.0
 40
1.0
 40
1.0
 40
1.0
 10
125.3317050860009
 20
228.9464129001147
 30
0.0
 10
125.3285451257303
 20
228.9220708344083
 30
0.0
 10
125.3175893576051
 20
228.8376754608207
 30
0.0
 10
125.2886674939667
 20
228.6148821834646
 30
0.0
 10
125.2769338142931
 20
228.5244943376957
 30
0.0
 10
125.2560135842007
 20
228.3633399016069
 30
0.0
 10
125.2484864649783
 20
228.305356378084
 30
0.0
 10
125.2322912882307
 20
228.1806003613214
 30
0.0
 10
125.2190503475137
 20
228.0786016583892
 30
0.0
 10
125.1769044837243
 20
227.7539401760675
 30
0.0
 10
125.1352204502528
 20
227.4328363030204
 30
0.0
 10
125.0207850992235
 20
226.5513085004345
 30
0.0
 10
124.9417716733669
 20
225.9426457834928
 30
0.0
 10
124.8626840070151
 20
225.333411171041
 30
0.0
  0
LINE
  5
2E8
330
1F
100
AcDbEntity
  8
0
  6
SLD-Сплошная
 62
     7
370
    25
100
AcDbLine
 10
140.8324630179
 20
303.9154801692
 30
0.0
 11
140.8324630179
 21
304.2712658399
 31
0.0
  0
LINE
  5
2E9
330
1F
100
AcDbEntity
  8
0
  6
SLD-Сплошная
 62
     7
370
    25
100
AcDbLine
 10
124.4055570557
 20
212.1673229968
 30
0.0
 11
140.8324630179
 21
212.1673229968
 31
0.0
  0
LINE
  5
2EA
330
1F
100
AcDbEntity
  8
0
  6
SLD-Сплошная
 62
     7
370
    25
100
AcDbLine
 10
140.8324630179
 20
212.1673229968
 30
0.0
 11
140.8324630179
 21
212.4633801538
 31
0.0
  0
LINE
  5
2EB
330
1F
100
AcDbEntity
  8
0
  6
SLD-Сплошная
 62
     7
370
    25
100
AcDbLine
 10
140.8324630179
 20
304.2712658399
 30
0.0
 11
140.8324630179
 21
304.5673229968
 31
0.0
  0
SPLINE
  5
2EC
330
1F
100
AcDbEntity
  8
0
  6
SLD-Сплошная
 62
     7
370
    25
100
AcDbSpline
210
0.0
220
0.0
230
1.0
 70
    24
 71
     3
 72
    10
 73
     6
 74
     0
 42
0.00000001
 43
0.00000001
 40
0.0
 40
0.0
 40
0.0
 40
0.0
 40
0.5
 40
0.5
 40
1.0
 40
1.0
 40
1.0
 40
1.0
 10
125.3317050860003
 20
287.7882330935682
 30
0.0
 10
125.3341366261805
 20
287.7695022533674
 30
0.0
 10
125.3365555100081
 20
287.7508689086442
 30
0.0
 10
125.3400424213925
 20
287.7240082462608
 30
0.0
 10
125.3410505997037
 20
287.7162419642203
 30
0.0
 10
125.3410490896114
 20
287.7162535968811
 30
0.0
  0
LINE
  5
2ED
330
1F
100
AcDbEntity
  8
0
  6
SLD-Сплошная
 62
     7
370
    25
100
AcDbLine
 10
176.4264180962
 20
7.5475956168
 30
0.0
 11
177.37695587
 21
7.5475956168
 31
0.0
  0
LINE
  5
2EE
330
1F
100
AcDbEntity
  8
0
  6
SLD-Сплошная
 62
     7
370
    25
100
AcDbLine
 10
177.37695587
 20
70.5475956168
 30
0.0
 11
144.8324630179
 21
70.5475956168
 31
0.0
  0
LINE
  5
2EF
330
1F
100
AcDbEntity
  8
0
  6
SLD-Сплошная
 62
     7
370
    25
100
AcDbLine
 10
208.9194055185
 20
66.0475956168
 30
0.0
 11
206.7947298798
 21
66.0475956168
 31
0.0
  0
LINE
  5
2F0
330
1F
100
AcDbEntity
  8
0
  6
SLD-Сплошная
 62
     7
370
    25
100
AcDbLine
 10
194.5774558704
 20
12.0475956168
 30
0.0
 11
208.9194055185
 21
12.0475956168
 31
0.0
  0
SPLINE
  5
2F1
330
1F
100
AcDbEntity
  8
0
  6
SLD-Сплошная
 62
     7
370
    25
100
AcDbSpline
210
0.0
220
0.0
230
1.0
 70
     8
 71
     3
 72
     9
 73
     5
 74
     0
 42
0.00000001
 43
0.00000001
 40
0.0
 40
0.0
 40
0.0
 40
0.0
 40
0.4999999999950043
 40
1.0
 40
1.0
 40
1.0
 40
1.0
 10
221.5304817101722
 20
64.76051962645677
 30
0.0
 10
219.4416120377306
 20
65.09246097516304
 30
0.0
 10
215.2638726928056
 20
65.75634367258223
 30
0.0
 10
211.0342279097301
 20
65.85185244121715
 30
0.0
 10
208.9194055181712
 20
65.89960682553509
 30
0.0
  0
LINE
  5
2F2
330
1F
100
AcDbEntity
  8
0
  6
SLD-Сплошная
 62
     7
370
    25
100
AcDbLine
 10
221.530534981
 20
13.1926697946
 30
0.0
 11
250.1770091424
 21
18.4394170607
 31
0.0
  0
LINE
  5
2F3
330
1F
100
AcDbEntity
  8
0
  6
SLD-Сплошная
 62
     7
370
    25
100
AcDbLine
 10
250.1770091406
 20
59.6557741598
 30
0.0
 11
221.5304817103
 21
64.9025311825
 31
0.0
  0
ARC
  5
2F4
330
1F
100
AcDbEntity
  8
0
  6
SLD-Сплошная
 62
     7
370
    25
100
AcDbCircle
 10
252.4269558708
 20
61.1475956162
 30
0.0
 40
2.250000000653344
100
AcDbArc
 50
112.0389183352
 51
180.0
  0
ARC
  5
2F5
330
1F
100
AcDbEntity
  8
0
  6
SLD-Сплошная
 62
     7
370
    25
100
AcDbCircle
 10
252.4269558708
 20
16.9475956174
 30
0.0
 40
2.250000000653358
100
AcDbArc
 50
180.0
 51
247.9610816728
  0
LINE
  5
2F6
330
1F
100
AcDbEntity
  8
0
  6
SLD-Сплошная
 62
     7
370
    25
100
AcDbLine
 10
279.27695587
 20
61.5982421665
 30
0.0
 11
269.27695587
 21
61.5982421665
 31
0.0
  0
LINE
  5
2F7
330
1F
100
AcDbEntity
  8
0
  6
SLD-Сплошная
 62
     7
370
    25
100
AcDbLine
 10
269.27695587
 20
16.2982421665
 30
0.0
 11
279.27695587
 21
16.2982421665
 31
0.0
  0
LINE
  5
2F8
330
1F
100
AcDbEntity
  8
0
  6
SLD-Сплошная
 62
     7
370
    25
100
AcDbLine
 10
279.27695587
 20
19.4982421665
 30
0.0
 11
292.27695587
 21
19.4982421665
 31
0.0
  0
LINE
  5
2F9
330
1F
100
AcDbEntity
  8
0
  6
SLD-Сплошная
 62
     7
370
    25
100
AcDbLine
 10
292.27695587
 20
58.3982421665
 30
0.0
 11
279.27695587
 21
58.3982421665
 31
0.0
  0
LINE
  5
2FA
330
1F
100
AcDbEntity
  8
0
  6
SLD-Сплошная
 62
     7
370
    25
100
AcDbLine
 10
159.7769558702
 20
26.2475956299
 30
0.0
 11
159.7769558702
 21
51.8475956293
 31
0.0
  0
LINE
  5
2FB
330
1F
100
AcDbEntity
  8
0
  6
SLD-Сплошная
 62
     7
370
    25
100
AcDbLine
 10
144.8324630179
 20
83.3475889066
 30
0.0
 11
140.8324630179
 21
83.3475889066
 31
0.0
  0
LINE
  5
2FC
330
1F
100
AcDbEntity
  8
0
  6
SLD-Сплошная
 62
     7
370
    25
100
AcDbLine
 10
140.8324630179
 20
-5.6524110934
 30
0.0
 11
144.8324630179
 21
-5.6524110934
 31
0.0
  0
LINE
  5
2FD
330
1F
100
AcDbEntity
  8
0
  6
SLD-Сплошная
 62
     7
370
    25
100
AcDbLine
 10
125.5981271636
 20
66.0975889066
 30
0.0
 11
123.7769558702
 21
66.0975889066
 31
0.0
  0
ARC
  5
2FE
330
1F
100
AcDbEntity
  8
0
  6
SLD-Сплошная
 62
     7
370
    25
100
AcDbCircle
 10
246.0373725369
 20
38.8475889066
 30
0.0
 40
125.260416666665
100
AcDbArc
 50
167.4350158237
 51
180.0
  0
LINE
  5
2FF
330
1F
100
AcDbEntity
  8
0
  6
SLD-Сплошная
 62
     7
370
    25
100
AcDbLine
 10
123.7769558702
 20
11.5975889066
 30
0.0
 11
125.5981271636
 21
11.5975889066
 31
0.0
  0
ARC
  5
300
330
1F
100
AcDbEntity
  8
0
  6
SLD-Сплошная
 62
     7
370
    25
100
AcDbCircle
 10
246.0373725369
 20
38.8475889066
 30
0.0
 40
125.260416666665
100
AcDbArc
 50
180.0
 51
192.5649841763
  0
SPLINE
  5
301
330
1F
100
AcDbEntity
  8
0
  6
SLD-Сплошная
 62
     7
370
    25
100
AcDbSpline
210
0.0
220
0.0
230
1.0
 70
     8
 71
     3
 72
    15
 73
    11
 74
     0
 42
0.00000001
 43
0.00000001
 40
0.0
 40
0.0
 40
0.0
 40
0.0
 40
0.124999999972723
 40
0.2499999999997748
 40
0.3749999999186405
 40
0.4999999999998488
 40
0.6249999998650131
 40
0.7499999999999003
 40
0.8749999998105332
 40
1.0
 40
1.0
 40
1.0
 40
1.0
 10
123.3147100672293
 20
-6.110803015185421
 30
0.0
 10
123.3094904467909
 20
-6.188676853039678
 30
0.0
 10
123.299051205912
 20
-6.34442452878204
 30
0.0
 10
123.3459203944199
 20
-6.575672299674075
 30
0.0
 10
123.4374027503497
 20
-6.791779994558281
 30
0.0
 10
123.5729204990863
 20
-6.983941523864439
 30
0.0
 10
123.7460363757686
 20
-7.143070424030055
 30
0.0
 10
123.9485682641596
 20
-7.261613206853417
 30
0.0
 10
124.1718577387746
 20
-7.337863209871613
 30
0.0
 10
124.3276532894851
 20
-7.34756179889038
 30
0.0
 10
124.4055510649584
 20
-7.352411093407111
 30
0.0
  0
SPLINE
  5
302
330
1F
100
AcDbEntity
  8
0
  6
SLD-Сплошная
 62
     7
370
    25
100
AcDbSpline
210
0.0
220
0.0
230
1.0
 70
     8
 71
     3
 72
    15
 73
    11
 74
     0
 42
0.00000001
 43
0.00000001
 40
0.0
 40
0.0
 40
0.0
 40
0.0
 40
0.124999999999947
 40
0.2500000000000476
 40
0.3750000000005274
 40
0.5000000000007487
 40
0.6250000000003599
 40
0.7500000000001278
 40
0.8750000000001962
 40
0.9999999999999999
 40
0.9999999999999999
 40
0.9999999999999999
 40
0.9999999999999999
 10
124.4055570556651
 20
85.04758890656633
 30
0.0
 10
124.3276590043417
 20
85.04274000545978
 30
0.0
 10
124.1718629016947
 20
85.03304220324665
 30
0.0
 10
123.9485723636776
 20
84.9567929315248
 30
0.0
 10
123.7460393759253
 20
84.83825052604085
 30
0.0
 10
123.5729224511761
 20
84.67912163955302
 30
0.0
 10
123.4374038042908
 20
84.48695981062845
 30
0.0
 10
123.3459207871566
 20
84.27085157246667
 30
0.0
 10
123.2990512012906
 20
84.03960309630614
 30
0.0
 10
123.3094904452489
 20
83.88385491765449
 30
0.0
 10
123.3147100672281
 20
83.80598082832874
 30
0.0
  0
LINE
  5
303
330
1F
100
AcDbEntity
  8
0
  6
SLD-Сплошная
 62
     7
370
    25
100
AcDbLine
 10
124.4030488463
 20
-7.3524110934
 30
0.0
 11
140.8324630179
 21
-7.3524110934
 31
0.0
  0
SPLINE
  5
304
330
1F
100
AcDbEntity
  8
0
  6
SLD-Сплошная
 62
     7
370
    25
100
AcDbSpline
210
0.0
220
0.0
230
1.0
 70
     8
 71
     3
 72
    11
 73
     7
 74
     0
 42
0.00000001
 43
0.00000001
 40
0.0
 40
0.0
 40
0.0
 40
0.0
 40
0.2499374635796832
 40
0.5000000000001518
 40
0.7500625364205317
 40
0.9999999999999999
 40
0.9999999999999999
 40
0.9999999999999999
 40
0.9999999999999999
 10
125.639109011562
 20
67.5755735308772
 30
0.0
 10
125.6481703397082
 20
67.56486901790062
 30
0.0
 10
125.666297530439
 20
67.54345463523215
 30
0.0
 10
125.6840335552112
 20
67.50505116241214
 30
0.0
 10
125.6948681747972
 20
67.46416101301426
 30
0.0
 10
125.6945654970511
 20
67.43610608091593
 30
0.0
 10
125.6944141960349
 20
67.42208212377685
 30
0.0
  0
SPLINE
  5
305
330
1F
100
AcDbEntity
  8
0
  6
SLD-Сплошная
 62
     7
370
    25
100
AcDbSpline
210
0.0
220
0.0
230
1.0
 70
     8
 71
     3
 72
    11
 73
     7
 74
     0
 42
0.00000001
 43
0.00000001
 40
0.0
 40
0.0
 40
0.0
 40
0.0
 40
0.2499374635792231
 40
0.5000000000019429
 40
0.7500625364243108
 40
1.0
 40
1.0
 40
1.0
 40
1.0
 10
125.6944141960356
 20
10.27309568936618
 30
0.0
 10
125.6945654970519
 20
10.25907173222725
 30
0.0
 10
125.6948681747981
 20
10.23101680012912
 30
0.0
 10
125.6840335552118
 20
10.19012665073158
 30
0.0
 10
125.6662975304399
 20
10.15172317791205
 30
0.0
 10
125.6481703397099
 20
10.13030879524346
 30
0.0
 10
125.6391090115643
 20
10.11960428226696
 30
0.0
  0
SPLINE
  5
306
330
1F
100
AcDbEntity
  8
0
  6
SLD-Сплошная
 62
     7
370
    25
100
AcDbSpline
210
0.0
220
0.0
230
1.0
 70
     8
 71
     3
 72
    11
 73
     7
 74
     0
 42
0.00000001
 43
0.00000001
 40
0.0
 40
0.0
 40
0.0
 40
0.0
 40
0.1504471191411206
 40
0.4336314232870641
 40
0.7168157140176823
 40
1.0
 40
1.0
 40
1.0
 40
1.0
 10
125.6573559404329
 20
10.13142584813847
 30
0.0
 10
125.6311924550396
 20
10.10637793286413
 30
0.0
 10
125.5557818424999
 20
10.03418271096295
 30
0.0
 10
125.4626178141278
 20
9.887314023246475
 30
0.0
 10
125.3781465328187
 20
9.700117229839659
 30
0.0
 10
125.3534149039448
 20
9.565811280591603
 30
0.0
 10
125.3410490896114
 20
9.498658306530565
 30
0.0
  0
SPLINE
  5
307
330
1F
100
AcDbEntity
  8
0
  6
SLD-Сплошная
 62
     7
370
    25
100
AcDbSpline
210
0.0
220
0.0
230
1.0
 70
     8
 71
     3
 72
    12
 73
     8
 74
     0
 42
0.00000001
 43
0.00000001
 40
0.0
 40
0.0
 40
0.0
 40
0.0
 40
0.2094925960461092
 40
0.3677478191300368
 40
0.5545024821515424
 40
0.7665111557855911
 40
1.0
 40
1.0
 40
1.0
 40
1.0
 10
125.3407080533171
 20
68.21754994632846
 30
0.0
 10
125.3481703220355
 20
68.16228169208314
 30
0.0
 10
125.361269749408
 20
68.06526260716346
 30
0.0
 10
125.4129056029851
 20
67.92027969746789
 30
0.0
 10
125.4853785356045
 20
67.77598508897592
 30
0.0
 10
125.5908273224874
 20
67.62179850883314
 30
0.0
 10
125.6785876191864
 20
67.53905295609106
 30
0.0
 10
125.7245834989011
 20
67.4956853441525
 30
0.0
  0
LINE
  5
308
330
1F
100
AcDbEntity
  8
0
  6
SLD-Сплошная
 62
     7
370
    25
100
AcDbLine
 10
157.4852805294
 20
20.5476022186
 30
0.0
 11
148.3769558702
 21
20.5476022188
 31
0.0
  0
LWPOLYLINE
  5
309
330
1F
100
AcDbEntity
  8
0
  6
SLD-Сплошная
 62
     7
370
    25
100
AcDbPolyline
 90
        3
 70
   128
 43
0.0
 10
148.3769558702
 20
20.5476022188
 10
148.3769554959
 20
23.7396022188
 10
148.376955869
 20
26.2476022188
  0
LWPOLYLINE
  5
30A
330
1F
100
AcDbEntity
  8
0
  6
SLD-Сплошная
 62
     7
370
    25
100
AcDbPolyline
 90
        5
 70
   128
 43
0.0
 10
149.9806389647
 20
26.2475989245
 10
149.3038730026
 20
26.2476022192
 10
148.7956184415
 20
26.2476022192
 10
148.482636828
 20
26.2476022192
 10
148.4791128449
 20
26.2476022192
  0
LINE
  5
30B
330
1F
100
AcDbEntity
  8
0
  6
SLD-Сплошная
 62
     7
370
    25
100
AcDbLine
 10
153.8769558702
 20
57.5475956168
 30
0.0
 11
157.4853344303
 21
57.5475956168
 31
0.0
  0
LINE
  5
30C
330
1F
100
AcDbEntity
  8
0
  6
SLD-Сплошная
 62
     7
370
    25
100
AcDbLine
 10
148.3769558679
 20
51.8475956168
 30
0.0
 11
148.3769558699
 21
57.5475956168
 31
0.0
  0
LINE
  5
30D
330
1F
100
AcDbEntity
  8
0
  6
SLD-Сплошная
 62
     7
370
    25
100
AcDbLine
 10
149.9806389647
 20
51.8475956232
 30
0.0
 11
148.4791128449
 21
51.8475956171
 31
0.0
  0
LINE
  5
30E
330
1F
100
AcDbEntity
  8
0
  6
SLD-Сплошная
 62
     7
370
    25
100
AcDbLine
 10
148.3769558699
 20
57.5475956168
 30
0.0
 11
153.8769558702
 21
57.5475956168
 31
0.0
  0
LINE
  5
30F
330
1F
100
AcDbEntity
  8
0
  6
SLD-Сплошная
 62
     7
370
    25
100
AcDbLine
 10
177.3769558702
 20
51.8475956168
 30
0.0
 11
177.3769558702
 21
57.5475956168
 31
0.0
  0
LINE
  5
310
330
1F
100
AcDbEntity
  8
0
  6
SLD-Сплошная
 62
     7
370
    25
100
AcDbLine
 10
159.3773146973
 20
51.8475956293
 30
0.0
 11
177.3769558702
 21
51.8475956168
 31
0.0
  0
LINE
  5
311
330
1F
100
AcDbEntity
  8
0
  6
SLD-Сплошная
 62
     7
370
    25
100
AcDbLine
 10
177.3769558702
 20
57.5475956168
 30
0.0
 11
157.4853344303
 21
57.5475956168
 31
0.0
  0
LINE
  5
312
330
1F
100
AcDbEntity
  8
0
  6
SLD-Сплошная
 62
     7
370
    25
100
AcDbLine
 10
177.3769558702
 20
20.5476022188
 30
0.0
 11
177.3769558702
 21
26.2476022188
 31
0.0
  0
LINE
  5
313
330
1F
100
AcDbEntity
  8
0
  6
SLD-Сплошная
 62
     7
370
    25
100
AcDbLine
 10
177.3769558702
 20
20.5476022188
 30
0.0
 11
157.4852805294
 21
20.5476022186
 31
0.0
  0
LINE
  5
314
330
1F
100
AcDbEntity
  8
0
  6
SLD-Сплошная
 62
     7
370
    25
100
AcDbLine
 10
177.3769558702
 20
26.2476022188
 30
0.0
 11
159.3773146973
 21
26.2475956299
 31
0.0
  0
SPLINE
  5
315
330
1F
100
AcDbEntity
  8
0
  6
SLD-Сплошная
 62
     7
370
    25
100
AcDbSpline
210
0.0
220
0.0
230
1.0
 70
    24
 71
     3
 72
    40
 73
    36
 74
     0
 42
0.00000001
 43
0.00000001
 40
0.0
 40
0.0
 40
0.0
 40
0.0
 40
0.0156413573999212
 40
0.0312581825263582
 40
0.0468553588109301
 40
0.0624377881587236
 40
0.0780103864008476
 40
0.0935780786815585
 40
0.1091457948013962
 40
0.1247184645382616
 40
0.1403010129685974
 40
0.1558983558108486
 40
0.1715153948131157
 40
0.1871570132064474
 40
0.2028280712444857
 40
0.2185334018492567
 40
0.2342778063817705
 40
0.2500660505547738
 40
0.3129157427827763
 40
0.37531260440465
 40
0.4375694279223472
 40
0.5000011107117607
 40
0.5623989497261397
 40
0.6246378955478146
 40
0.6870329026081209
 40
0.7498965797265597
 40
0.7779193328713435
 40
0.8058198300978591
 40
0.8336251516237285
 40
0.8613626564290285
 40
0.889059904459979
 40
0.9167445758892888
 40
0.9444443885927452
 40
0.9721870150628756
 40
0.9999999999999999
 40
0.9999999999999999
 40
0.9999999999999999
 40
0.9999999999999999
 10
144.7769558701711
 20
73.04759561338892
 30
0.0
 10
144.7769558701711
 20
73.04657252166393
 30
0.0
 10
144.776955870171
 20
73.04452794285517
 30
0.0
 10
144.7769558701711
 20
73.02804024103823
 30
0.0
 10
144.776955870171
 20
73.00172172119282
 30
0.0
 10
144.7769558701711
 20
72.96461325094167
 30
0.0
 10
144.7769558701711
 20
72.91697136395433
 30
0.0
 10
144.776955870171
 20
72.8587274057181
 30
0.0
 10
144.7769558701711
 20
72.789899770249
 30
0.0
 10
144.776955870171
 20
72.71048355982937
 30
0.0
 10
144.7769558701711
 20
72.62048013026518
 30
0.0
 10
144.7769558701711
 20
72.5198891847273
 30
0.0
 10
144.776955870171
 20
72.40871085548945
 30
0.0
 10
144.7769558701711
 20
72.28694528330637
 30
0.0
 10
144.776955870171
 20
72.15459221218798
 30
0.0
 10
144.776955870171
 20
72.01165303364074
 30
0.0
 10
144.7769558701711
 20
71.85812298565996
 30
0.0
 10
144.7769558701711
 20
71.5311531319585
 30
0.0
 10
144.7769558701711
 20
70.96775300282843
 30
0.0
 10
144.776955870171
 20
70.05962747747009
 30
0.0
 10
144.7769558701711
 20
68.99774778941125
 30
0.0
 10
144.7769558701711
 20
67.78565031318564
 30
0.0
 10
144.7769558701711
 20
66.4315150883466
 30
0.0
 10
144.7769558701711
 20
64.94019677816131
 30
0.0
 10
144.7769558701711
 20
63.3150858747915
 30
0.0
 10
144.7769558701711
 20
61.88775031548144
 30
0.0
 10
144.7769558701711
 20
60.73191538144718
 30
0.0
 10
144.7769558701711
 20
59.89591288862763
 30
0.0
 10
144.7769558701711
 20
59.04223321285821
 30
0.0
 10
144.7769558701712
 20
58.17087042938039
 30
0.0
 10
144.7769558701711
 20
57.28180583480805
 30
0.0
 10
144.7769558701711
 20
56.37513325115982
 30
0.0
 10
144.7769558701711
 20
55.4505108928489
 30
0.0
 10
144.7769558701712
 20
54.50923074196629
 30
0.0
 10
144.7769558701711
 20
53.86841118479166
 30
0.0
 10
144.7769558701712
 20
53.54759562287732
 30
0.0
  0
LINE
  5
316
330
1F
100
AcDbEntity
  8
0
  6
SLD-Сплошная
 62
     7
370
    25
100
AcDbLine
 10
148.3769558702
 20
53.5475956188
 30
0.0
 11
144.7769558696
 21
53.5475956229
 31
0.0
  0
SPLINE
  5
317
330
1F
100
AcDbEntity
  8
0
  6
SLD-Сплошная
 62
     7
370
    25
100
AcDbSpline
210
0.0
220
0.0
230
1.0
 70
     8
 71
     3
 72
     8
 73
     4
 74
     0
 42
0.00000001
 43
0.00000001
 40
0.0
 40
0.0
 40
0.0
 40
0.0
 40
0.9451792579830445
 40
0.9451792579830445
 40
0.9451792579830445
 40
0.9451792579830445
 10
148.376955870209
 20
53.54759561875173
 30
0.0
 10
148.3769558701732
 20
52.98732157169584
 30
0.0
 10
148.3769558701712
 20
52.42179748993038
 30
0.0
 10
148.3769558682086
 20
51.84759561690649
 30
0.0
  0
LINE
  5
318
330
1F
100
AcDbEntity
  8
0
  6
SLD-Сплошная
 62
     7
370
    25
100
AcDbLine
 10
148.3769558702
 20
24.547602216
 30
0.0
 11
144.7769558714
 21
24.5476022131
 31
0.0
  0
SPLINE
  5
319
330
1F
100
AcDbEntity
  8
0
  6
SLD-Сплошная
 62
     7
370
    25
100
AcDbSpline
210
0.0
220
0.0
230
1.0
 70
    24
 71
     3
 72
    15
 73
    11
 74
     0
 42
0.00000001
 43
0.00000001
 40
0.0
 40
0.0
 40
0.0
 40
0.0
 40
0.140981058422166
 40
0.2830757995986344
 40
0.4250626623229139
 40
0.5659884377959532
 40
0.7068706017947576
 40
0.8489785721271172
 40
0.9910439299274728
 40
1.0
 40
1.0
 40
1.0
 40
1.0
 10
144.7769558701712
 20
24.54760221305582
 30
0.0
 10
144.7769558701712
 20
22.9500626479195
 30
0.0
 10
144.7769558701713
 20
19.74236372117972
 30
0.0
 10
144.7769558701713
 20
15.53024713650604
 30
0.0
 10
144.7769558701713
 20
11.86843179892676
 30
0.0
 10
144.7769558701713
 20
8.934327508463781
 30
0.0
 10
144.7769558701713
 20
6.739814985118421
 30
0.0
 10
144.7769558701712
 20
5.479111147779846
 30
0.0
 10
144.7769558701714
 20
4.92811204339988
 30
0.0
 10
144.7769558701713
 20
5.069043671352989
 30
0.0
 10
144.7769558701713
 20
5.077401382925194
 30
0.0
  0
SPLINE
  5
31A
330
1F
100
AcDbEntity
  8
0
  6
SLD-Сплошная
 62
     7
370
    25
100
AcDbSpline
210
0.0
220
0.0
230
1.0
 70
    24
 71
     3
 72
     8
 73
     4
 74
     0
 42
0.00000001
 43
0.00000001
 40
0.0
 40
0.0
 40
0.0
 40
0.0
 40
1.0
 40
1.0
 40
1.0
 40
1.0
 10
148.3769558702091
 20
25.74760222414415
 30
0.0
 10
148.3769558701712
 20
25.34380323955623
 30
0.0
 10
148.3769558701712
 20
24.94513733055535
 30
0.0
 10
148.3769558702091
 20
24.54760221598663
 30
0.0
  0
LINE
  5
31B
330
1F
100
AcDbEntity
  8
0
  6
SLD-Сплошная
 62
     7
370
    25
100
AcDbLine
 10
177.3769558702
 20
26.2476022188
 30
0.0
 11
177.3769558702
 21
51.8475956168
 31
0.0
  0
LINE
  5
31C
330
1F
100
AcDbEntity
  8
0
  6
SLD-Сплошная
 62
     7
370
    25
100
AcDbLine
 10
176.37695587
 20
7.5475956168
 30
0.0
 11
144.8324630179
 21
7.5475956168
 31
0.0
  0
LINE
  5
31D
330
1F
100
AcDbEntity
  8
0
  6
SLD-Сплошная
 62
     7
370
    25
100
AcDbLine
 10
177.37695587
 20
20.5476022188
 30
0.0
 11
177.37695587
 21
7.5475956168
 31
0.0
  0
LINE
  5
31E
330
1F
100
AcDbEntity
  8
0
  6
SLD-Сплошная
 62
     7
370
    25
100
AcDbLine
 10
148.3769558705
 20
21.0476022176
 30
0.0
 11
148.3769558705
 21
20.5476022188
 31
0.0
  0
LINE
  5
31F
330
1F
100
AcDbEntity
  8
0
  6
SLD-Сплошная
 62
     7
370
    25
100
AcDbLine
 10
177.37695587
 20
57.5475956168
 30
0.0
 11
177.37695587
 21
70.5475956168
 31
0.0
  0
LINE
  5
320
330
1F
100
AcDbEntity
  8
0
  6
SLD-Сплошная
 62
     7
370
    25
100
AcDbLine
 10
177.37695587
 20
12.0475956168
 30
0.0
 11
194.5769558702
 21
12.0475956168
 31
0.0
  0
LINE
  5
321
330
1F
100
AcDbEntity
  8
0
  6
SLD-Сплошная
 62
     7
370
    25
100
AcDbLine
 10
177.37695587
 20
66.0475956168
 30
0.0
 11
206.78472988
 21
66.0475956168
 31
0.0
  0
ARC
  5
322
330
1F
100
AcDbEntity
  8
0
  6
SLD-Сплошная
 62
     7
370
    25
100
AcDbCircle
 10
208.9194055182
 20
82.04759561
 30
0.0
 40
69.99999999313803
100
AcDbArc
 50
270.0
 51
280.3789764658
  0
SPLINE
  5
323
330
1F
100
AcDbEntity
  8
0
  6
SLD-Сплошная
 62
     7
370
    25
100
AcDbSpline
210
0.0
220
0.0
230
1.0
 70
    24
 71
     3
 72
     8
 73
     4
 74
     0
 42
0.00000001
 43
0.00000001
 40
0.0
 40
0.0
 40
0.0
 40
0.0
 40
1.0
 40
1.0
 40
1.0
 40
1.0
 10
208.91940551822
 20
66.04759083525347
 30
0.0
 10
208.91940551822
 20
66.04759363278026
 30
0.0
 10
208.9194055182191
 20
66.04846655011912
 30
0.0
 10
208.9194055182191
 20
66.04601317128692
 30
0.0
  0
SPLINE
  5
324
330
1F
100
AcDbEntity
  8
0
  6
SLD-Сплошная
 62
     7
370
    25
100
AcDbSpline
210
0.0
220
0.0
230
1.0
 70
     8
 71
     3
 72
     8
 73
     4
 74
     0
 42
0.00000001
 43
0.00000001
 40
0.0
 40
0.0
 40
0.0
 40
0.0
 40
1.0
 40
1.0
 40
1.0
 40
1.0
 10
221.5304817101722
 20
64.90222580822075
 30
0.0
 10
217.3720667596311
 20
65.66386063217837
 30
0.0
 10
213.1463089761777
 20
66.04759083522782
 30
0.0
 10
208.919405518221
 20
66.04759083524137
 30
0.0
  0
LINE
  5
325
330
1F
100
AcDbEntity
  8
0
  6
SLD-Сплошная
 62
     7
370
    25
100
AcDbLine
 10
221.5304817101
 20
64.9008786108
 30
0.0
 11
221.5304817101
 21
64.9018245761
 31
0.0
  0
LINE
  5
326
330
1F
100
AcDbEntity
  8
0
  6
SLD-Сплошная
 62
     7
370
    25
100
AcDbLine
 10
221.5305349783
 20
64.7202106365
 30
0.0
 11
221.5305349783
 21
64.9008688551
 31
0.0
  0
SPLINE
  5
327
330
1F
100
AcDbEntity
  8
0
  6
SLD-Сплошная
 62
     7
370
    25
100
AcDbSpline
210
0.0
220
0.0
230
1.0
 70
     8
 71
     3
 72
    10
 73
     6
 74
     0
 42
0.00000001
 43
0.00000001
 40
0.0
 40
0.0
 40
0.0
 40
0.0
 40
0.5
 40
0.5
 40
1.0
 40
1.0
 40
1.0
 40
1.0
 10
251.5826741967571
 20
63.2331862899128
 30
0.0
 10
251.7873931376099
 20
63.31605991042257
 30
0.0
 10
252.010578447897
 20
63.35294691244454
 30
0.0
 10
252.451573805313
 20
63.3277552150255
 30
0.0
 10
252.6691066409459
 20
63.2656923511891
 30
0.0
 10
252.8630563866333
 20
63.16004492874951
 30
0.0
  0
SPLINE
  5
328
330
1F
100
AcDbEntity
  8
0
  6
SLD-Сплошная
 62
     7
370
    25
100
AcDbSpline
210
0.0
220
0.0
230
1.0
 70
     8
 71
     3
 72
    10
 73
     6
 74
     0
 42
0.00000001
 43
0.00000001
 40
0.0
 40
0.0
 40
0.0
 40
0.0
 40
0.5
 40
0.5
 40
1.0
 40
1.0
 40
1.0
 40
1.0
 10
252.8630563879362
 20
14.93514630554763
 30
0.0
 10
252.6691066421317
 20
14.82949888281086
 30
0.0
 10
252.4515738062883
 20
14.76743601875382
 30
0.0
 10
252.010578448394
 20
14.74224432111379
 30
0.0
 10
251.7873931378406
 20
14.77913132313562
 30
0.0
 10
251.5826741967649
 20
14.86200494374806
 30
0.0
  0
SPLINE
  5
329
330
1F
100
AcDbEntity
  8
0
  6
SLD-Сплошная
 62
     7
370
    25
100
AcDbSpline
210
0.0
220
0.0
230
1.0
 70
     8
 71
     3
 72
    32
 73
    28
 74
     0
 42
0.00000001
 43
0.00000001
 40
0.0
 40
0.0
 40
0.0
 40
0.0
 40
0.0104240032450806
 40
0.0215526662816859
 40
0.033385815795215
 40
0.0496981026005593
 40
0.0660069847217886
 40
0.0980915355700309
 40
0.1456229127344454
 40
0.2810627605427741
 40
0.3543106600286282
 40
0.401842944255174
 40
0.433929116949576
 40
0.499905481321424
 40
0.5332872268787809
 40
0.5659060128386002
 40
0.6249225009666076
 40
0.6839559311392952
 40
0.7810897852390349
 40
0.8070217224757804
 40
0.8346879607561563
 40
0.8682988318206507
 40
0.9019083039902946
 40
0.9290133770410427
 40
0.9543980573933165
 40
0.9780607219291505
 40
1.0
 40
1.0
 40
1.0
 40
1.0
 10
250.1769558701294
 20
61.14759561338524
 30
0.0
 10
250.1769558692604
 20
61.14699347519653
 30
0.0
 10
250.1769558674637
 20
61.14574849444089
 30
0.0
 10
250.1769559133811
 20
61.13523569036333
 30
0.0
 10
250.1769562125351
 20
61.11496955930582
 30
0.0
 10
250.1769572320115
 20
61.08021761519652
 30
0.0
 10
250.1769602738094
 20
61.01029269844188
 30
0.0
 10
250.176972526706
 20
60.86324998069322
 30
0.0
 10
250.1770241376308
 20
60.38152394622436
 30
0.0
 10
250.1770845320594
 20
59.39362702337991
 30
0.0
 10
250.1770084697536
 20
57.97980186296405
 30
0.0
 10
250.1769711970289
 20
56.99562805349424
 30
0.0
 10
250.1769553767309
 20
55.97262153343483
 30
0.0
 10
250.1769559790617
 20
54.95589535177459
 30
0.0
 10
250.1769558058056
 20
53.84732789906431
 30
0.0
 10
250.1769589723172
 20
52.74600862304194
 30
0.0
 10
250.176984487522
 20
51.33756531532923
 30
0.0
 10
250.1770470086907
 20
49.20111247004245
 30
0.0
 10
250.1770682428122
 20
47.26951193389732
 30
0.0
 10
250.1770383026268
 20
45.61822468575537
 30
0.0
 10
250.177016954502
 20
44.6501168853593
 30
0.0
 10
250.1769925901028
 20
43.58327105172681
 30
0.0
 10
250.1769708846004
 20
42.51087904465248
 30
0.0
 10
250.1769597657467
 20
41.52458189562041
 30
0.0
 10
250.1769564498302
 20
40.6479497747885
 30
0.0
 10
250.1769558312558
 20
39.82839851173976
 30
0.0
 10
250.1769558575253
 20
39.3012222415543
 30
0.0
 10
250.1769558701636
 20
39.04759561683554
 30
0.0
  0
SPLINE
  5
32A
330
1F
100
AcDbEntity
  8
0
  6
SLD-Сплошная
 62
     7
370
    25
100
AcDbSpline
210
0.0
220
0.0
230
1.0
 70
     8
 71
     3
 72
    32
 73
    28
 74
     0
 42
0.00000001
 43
0.00000001
 40
0.0
 40
0.0
 40
0.0
 40
0.0
 40
0.0104240198980168
 40
0.0215526830041452
 40
0.0333858160054848
 40
0.0496981033025974
 40
0.0660069859148556
 40
0.0980915375514204
 40
0.1456229125392898
 40
0.2810627605552009
 40
0.3543106600406187
 40
0.4018429442567339
 40
0.4339291169547041
 40
0.4999054813326844
 40
0.5332872262742657
 40
0.5659060096773927
 40
0.6249225009761462
 40
0.6839559319861607
 40
0.7810897850384402
 40
0.8070217218336296
 40
0.8346879605554656
 40
0.8682988319844338
 40
0.9019083045188205
 40
0.9290133904695592
 40
0.9543980750365723
 40
0.9780607350972164
 40
1.0
 40
1.0
 40
1.0
 40
1.0
 10
250.1769558701636
 20
39.04759561683563
 30
0.0
 10
250.1769558692943
 20
38.92709467027242
 30
0.0
 10
250.176955867497
 20
38.67794715056454
 30
0.0
 10
250.1769559134139
 20
38.29212503343689
 30
0.0
 10
250.1769562125673
 20
37.83855701089544
 30
0.0
 10
250.1769572320422
 20
37.32578284837163
 30
0.0
 10
250.1769602738391
 20
36.58100826942647
 30
0.0
 10
250.1769725267331
 20
35.48134677973815
 30
0.0
 10
250.1770241376533
 20
33.0410725204609
 30
0.0
 10
250.1770845320737
 20
30.22106718563222
 30
0.0
 10
250.1770084697606
 20
27.61280289239778
 30
0.0
 10
250.1769711970313
 20
26.14293112690903
 30
0.0
 10
250.1769553767293
 20
24.8058920874591
 30
0.0
 10
250.176955979056
 20
23.67201886071846
 30
0.0
 10
250.1769558057965
 20
22.62298190348918
 30
0.0
 10
250.1769589723035
 20
21.6863240325917
 30
0.0
 10
250.1769844875047
 20
20.65688898692024
 30
0.0
 10
250.1770470086666
 20
19.37758515701725
 30
0.0
 10
250.1770682427845
 20
18.5170399060391
 30
0.0
 10
250.1770383025965
 20
17.96035378015656
 30
0.0
 10
250.177016954469
 20
17.67792038045823
 30
0.0
 10
250.1769925900672
 20
17.42093223938525
 30
0.0
 10
250.1769708845598
 20
17.22091646120385
 30
0.0
 10
250.176959765704
 20
17.08504929742941
 30
0.0
 10
250.1769564497883
 20
17.00253113043808
 30
0.0
 10
250.1769558312141
 20
16.95573372315717
 30
0.0
 10
250.1769558574825
 20
16.95023910337697
 30
0.0
 10
250.1769558701203
 20
16.94759562025659
 30
0.0
  0
LINE
  5
32B
330
1F
100
AcDbEntity
  8
0
  6
SLD-Сплошная
 62
     7
370
    25
100
AcDbLine
 10
258.5769558701
 20
39.0475948297
 30
0.0
 11
258.5769558699
 21
18.0466684979
 31
0.0
  0
LINE
  5
32C
330
1F
100
AcDbEntity
  8
0
  6
SLD-Сплошная
 62
     7
370
    25
100
AcDbLine
 10
258.576955869
 20
18.0466684975
 30
0.0
 11
252.8634458434
 21
14.9344313329
 31
0.0
  0
LINE
  5
32D
330
1F
100
AcDbEntity
  8
0
  6
SLD-Сплошная
 62
     7
370
    25
100
AcDbLine
 10
258.5769558708
 20
60.0485227413
 30
0.0
 11
252.8634458464
 21
63.1607599052
 31
0.0
  0
LINE
  5
32E
330
1F
100
AcDbEntity
  8
0
  6
SLD-Сплошная
 62
     7
370
    25
100
AcDbLine
 10
258.5769558701
 20
39.0475948297
 30
0.0
 11
258.5769558701
 21
60.0485227417
 31
0.0
  0
LINE
  5
32F
330
1F
100
AcDbEntity
  8
0
  6
SLD-Сплошная
 62
     7
370
    25
100
AcDbLine
 10
279.27695587
 20
61.5701253761
 30
0.0
 11
279.27695587
 21
61.5982421665
 31
0.0
  0
LINE
  5
330
330
1F
100
AcDbEntity
  8
0
  6
SLD-Сплошная
 62
     7
370
    25
100
AcDbLine
 10
279.27695587
 20
61.5701253761
 30
0.0
 11
272.27695587
 21
61.5701253761
 31
0.0
  0
LINE
  5
331
330
1F
100
AcDbEntity
  8
0
  6
SLD-Сплошная
 62
     7
370
    25
100
AcDbLine
 10
272.27695587
 20
61.5701253761
 30
0.0
 11
272.27695587
 21
51.5862667541
 31
0.0
  0
LINE
  5
332
330
1F
100
AcDbEntity
  8
0
  6
SLD-Сплошная
 62
     7
370
    25
100
AcDbLine
 10
279.27695587
 20
51.5862667541
 30
0.0
 11
272.27695587
 21
51.5862667541
 31
0.0
  0
LINE
  5
333
330
1F
100
AcDbEntity
  8
0
  6
SLD-Сплошная
 62
     7
370
    25
100
AcDbLine
 10
279.27695587
 20
49.2821090367
 30
0.0
 11
279.27695587
 21
51.5862667541
 31
0.0
  0
LINE
  5
334
330
1F
100
AcDbEntity
  8
0
  6
SLD-Сплошная
 62
     7
370
    25
100
AcDbLine
 10
279.27695587
 20
49.2821090367
 30
0.0
 11
272.27695587
 21
49.2821090367
 31
0.0
  0
LINE
  5
335
330
1F
100
AcDbEntity
  8
0
  6
SLD-Сплошная
 62
     7
370
    25
100
AcDbLine
 10
272.27695587
 20
49.2821090367
 30
0.0
 11
272.27695587
 21
28.989136452
 31
0.0
  0
LINE
  5
336
330
1F
100
AcDbEntity
  8
0
  6
SLD-Сплошная
 62
     7
370
    25
100
AcDbLine
 10
279.27695587
 20
28.989136452
 30
0.0
 11
272.27695587
 21
28.989136452
 31
0.0
  0
LINE
  5
337
330
1F
100
AcDbEntity
  8
0
  6
SLD-Сплошная
 62
     7
370
    25
100
AcDbLine
 10
279.27695587
 20
26.660225827
 30
0.0
 11
279.27695587
 21
28.989136452
 31
0.0
  0
LINE
  5
338
330
1F
100
AcDbEntity
  8
0
  6
SLD-Сплошная
 62
     7
370
    25
100
AcDbLine
 10
279.27695587
 20
26.660225827
 30
0.0
 11
272.27695587
 21
26.660225827
 31
0.0
  0
LINE
  5
339
330
1F
100
AcDbEntity
  8
0
  6
SLD-Сплошная
 62
     7
370
    25
100
AcDbLine
 10
272.27695587
 20
26.660225827
 30
0.0
 11
272.27695587
 21
19.4384008966
 31
0.0
  0
LINE
  5
33A
330
1F
100
AcDbEntity
  8
0
  6
SLD-Сплошная
 62
     7
370
    25
100
AcDbLine
 10
269.27695587
 20
61.5982421665
 30
0.0
 11
269.27695587
 21
19.4384008966
 31
0.0
  0
LINE
  5
33B
330
1F
100
AcDbEntity
  8
0
  6
SLD-Сплошная
 62
     7
370
    25
100
AcDbLine
 10
292.27695587
 20
40.1355799311
 30
0.0
 11
292.27695587
 21
38.1356655576
 31
0.0
  0
LINE
  5
33C
330
1F
100
AcDbEntity
  8
0
  6
SLD-Сплошная
 62
     7
370
    25
100
AcDbLine
 10
292.27695587
 20
38.1356655576
 30
0.0
 11
279.27695587
 21
38.1356655576
 31
0.0
  0
LINE
  5
33D
330
1F
100
AcDbEntity
  8
0
  6
SLD-Сплошная
 62
     7
370
    25
100
AcDbLine
 10
279.27695587
 20
38.1356655576
 30
0.0
 11
279.27695587
 21
28.989136452
 31
0.0
  0
LINE
  5
33E
330
1F
100
AcDbEntity
  8
0
  6
SLD-Сплошная
 62
     7
370
    25
100
AcDbLine
 10
279.27695587
 20
40.1355799311
 30
0.0
 11
279.27695587
 21
49.2821090367
 31
0.0
  0
LINE
  5
33F
330
1F
100
AcDbEntity
  8
0
  6
SLD-Сплошная
 62
     7
370
    25
100
AcDbLine
 10
279.27695587
 20
40.1355799311
 30
0.0
 11
292.27695587
 21
40.1355799311
 31
0.0
  0
LINE
  5
340
330
1F
100
AcDbEntity
  8
0
  6
SLD-Сплошная
 62
     7
370
    25
100
AcDbLine
 10
279.27695587
 20
38.1280248351
 30
0.0
 11
292.27695587
 21
38.1280248351
 31
0.0
  0
LINE
  5
341
330
1F
100
AcDbEntity
  8
0
  6
SLD-Сплошная
 62
     7
370
    25
100
AcDbLine
 10
292.27695587
 20
38.1280248351
 30
0.0
 11
292.27695587
 21
38.1356655576
 31
0.0
  0
LINE
  5
342
330
1F
100
AcDbEntity
  8
0
  6
SLD-Сплошная
 62
     7
370
    25
100
AcDbLine
 10
292.27695587
 20
22.7249080273
 30
0.0
 11
279.27695587
 21
22.7249080273
 31
0.0
  0
LINE
  5
343
330
1F
100
AcDbEntity
  8
0
  6
SLD-Сплошная
 62
     7
370
    25
100
AcDbLine
 10
292.27695587
 20
22.7249080273
 30
0.0
 11
292.27695587
 21
38.1280248351
 31
0.0
  0
LINE
  5
344
330
1F
100
AcDbEntity
  8
0
  6
SLD-Сплошная
 62
     7
370
    25
100
AcDbLine
 10
279.27695587
 20
55.3673434539
 30
0.0
 11
292.27695587
 21
55.3673434539
 31
0.0
  0
LINE
  5
345
330
1F
100
AcDbEntity
  8
0
  6
SLD-Сплошная
 62
     7
370
    25
100
AcDbLine
 10
292.27695587
 20
40.1279392086
 30
0.0
 11
292.27695587
 21
55.3673434539
 31
0.0
  0
LINE
  5
346
330
1F
100
AcDbEntity
  8
0
  6
SLD-Сплошная
 62
     7
370
    25
100
AcDbLine
 10
292.27695587
 20
20.9976766059
 30
0.0
 11
279.27695587
 21
20.9976766059
 31
0.0
  0
LINE
  5
347
330
1F
100
AcDbEntity
  8
0
  6
SLD-Сплошная
 62
     7
370
    25
100
AcDbLine
 10
279.27695587
 20
20.9976766059
 30
0.0
 11
279.27695587
 21
16.3511118644
 31
0.0
  0
LINE
  5
348
330
1F
100
AcDbEntity
  8
0
  6
SLD-Сплошная
 62
     7
370
    25
100
AcDbLine
 10
279.27695587
 20
16.3511118644
 30
0.0
 11
272.27695587
 21
16.3511118644
 31
0.0
  0
LINE
  5
349
330
1F
100
AcDbEntity
  8
0
  6
SLD-Сплошная
 62
     7
370
    25
100
AcDbLine
 10
292.27695587
 20
22.0136610855
 30
0.0
 11
279.27695587
 21
22.0136610855
 31
0.0
  0
LINE
  5
34A
330
1F
100
AcDbEntity
  8
0
  6
SLD-Сплошная
 62
     7
370
    25
100
AcDbLine
 10
292.27695587
 20
22.0136610855
 30
0.0
 11
292.27695587
 21
20.9976766059
 31
0.0
  0
LINE
  5
34B
330
1F
100
AcDbEntity
  8
0
  6
SLD-Сплошная
 62
     7
370
    25
100
AcDbLine
 10
279.27695587
 20
22.0136610855
 30
0.0
 11
279.27695587
 21
26.660225827
 31
0.0
  0
LINE
  5
34C
330
1F
100
AcDbEntity
  8
0
  6
SLD-Сплошная
 62
     7
370
    25
100
AcDbLine
 10
292.27695587
 20
56.0862311182
 30
0.0
 11
279.27695587
 21
56.0862311182
 31
0.0
  0
LINE
  5
34D
330
1F
100
AcDbEntity
  8
0
  6
SLD-Сплошная
 62
     7
370
    25
100
AcDbLine
 10
279.27695587
 20
57.070161012
 30
0.0
 11
279.27695587
 21
61.5701253761
 31
0.0
  0
LINE
  5
34E
330
1F
100
AcDbEntity
  8
0
  6
SLD-Сплошная
 62
     7
370
    25
100
AcDbLine
 10
292.27695587
 20
57.070161012
 30
0.0
 11
279.27695587
 21
57.070161012
 31
0.0
  0
LINE
  5
34F
330
1F
100
AcDbEntity
  8
0
  6
SLD-Сплошная
 62
     7
370
    25
100
AcDbLine
 10
279.27695587
 20
56.0862311182
 30
0.0
 11
279.27695587
 21
51.5862667541
 31
0.0
  0
LINE
  5
350
330
1F
100
AcDbEntity
  8
0
  6
SLD-Сплошная
 62
     7
370
    25
100
AcDbLine
 10
292.27695587
 20
57.070161012
 30
0.0
 11
292.27695587
 21
56.0862311182
 31
0.0
  0
LINE
  5
351
330
1F
100
AcDbEntity
  8
0
  6
SLD-Сплошная
 62
     7
370
    25
100
AcDbLine
 10
258.57695587
 20
56.1982421665
 30
0.0
 11
269.27695587
 21
56.1982421665
 31
0.0
  0
LINE
  5
352
330
1F
100
AcDbEntity
  8
0
  6
SLD-Сплошная
 62
     7
370
    25
100
AcDbLine
 10
258.57695587
 20
21.6982421665
 30
0.0
 11
269.27695587
 21
21.6982421665
 31
0.0
  0
LINE
  5
353
330
1F
100
AcDbEntity
  8
0
  6
SLD-Сплошная
 62
     7
370
    25
100
AcDbLine
 10
279.27695587
 20
16.2982421665
 30
0.0
 11
279.27695587
 21
16.3511118644
 31
0.0
  0
LINE
  5
354
330
1F
100
AcDbEntity
  8
0
  6
SLD-Сплошная
 62
     7
370
    25
100
AcDbLine
 10
272.27695587
 20
19.4384008966
 30
0.0
 11
272.27695587
 21
16.3511118644
 31
0.0
  0
LINE
  5
355
330
1F
100
AcDbEntity
  8
0
  6
SLD-Сплошная
 62
     7
370
    25
100
AcDbLine
 10
269.27695587
 20
19.4384008966
 30
0.0
 11
269.27695587
 21
16.2982421665
 31
0.0
  0
LINE
  5
356
330
1F
100
AcDbEntity
  8
0
  6
SLD-Сплошная
 62
     7
370
    25
100
AcDbLine
 10
292.27695587
 20
22.0136610855
 30
0.0
 11
292.27695587
 21
22.7249080273
 31
0.0
  0
LINE
  5
357
330
1F
100
AcDbEntity
  8
0
  6
SLD-Сплошная
 62
     7
370
    25
100
AcDbLine
 10
292.27695587
 20
56.0862311182
 30
0.0
 11
292.27695587
 21
55.3673434539
 31
0.0
  0
LINE
  5
358
330
1F
100
AcDbEntity
  8
0
  6
SLD-Сплошная
 62
     7
370
    25
100
AcDbLine
 10
292.27695587
 20
19.4982421665
 30
0.0
 11
292.27695587
 21
20.9976766059
 31
0.0
  0
LINE
  5
359
330
1F
100
AcDbEntity
  8
0
  6
SLD-Сплошная
 62
     7
370
    25
100
AcDbLine
 10
292.27695587
 20
57.070161012
 30
0.0
 11
292.27695587
 21
58.3982421665
 31
0.0
  0
LWPOLYLINE
  5
35A
330
1F
100
AcDbEntity
  8
0
  6
SLD-Сплошная
 62
     7
370
    25
100
AcDbPolyline
 90
       11
 70
   128
 43
0.0
 10
149.9806389647
 20
26.2475989245
 10
150.7253824557
 20
26.2475956299
 10
151.694876912
 20
26.2475956299
 10
152.7814072171
 20
26.2475956299
 10
153.9357250721
 20
26.2475956299
 10
155.1055096254
 20
26.2475956299
 10
156.2377389786
 20
26.2475956299
 10
157.281093468
 20
26.2475956299
 10
158.1882817907
 20
26.2475956299
 10
158.9181845397
 20
26.2475956299
 10
159.3773146973
 20
26.2475956299
  0
LINE
  5
35B
330
1F
100
AcDbEntity
  8
0
  6
SLD-Сплошная
 62
     7
370
    25
100
AcDbLine
 10
149.9806389647
 20
51.8475956232
 30
0.0
 11
151.9525554306
 21
51.8475956293
 31
0.0
  0
LINE
  5
35C
330
1F
100
AcDbEntity
  8
0
  6
SLD-Сплошная
 62
     7
370
    25
100
AcDbLine
 10
151.9525554306
 20
51.8475956293
 30
0.0
 11
159.2616486989
 21
51.8475956293
 31
0.0
  0
LINE
  5
35D
330
1F
100
AcDbEntity
  8
0
  6
SLD-Сплошная
 62
     7
370
    25
100
AcDbLine
 10
159.2616486989
 20
51.8475956293
 30
0.0
 11
159.3773146973
 21
51.8475956293
 31
0.0
  0
ELLIPSE
  5
35E
330
1F
100
AcDbEntity
  8
0
  6
SLD-Сплошная
 62
     7
370
    25
100
AcDbEllipse
 10
127.6559250245
 20
38.8475889066
 30
0.0
 11
1.136868377216160E-13
 21
39.0942618564507
 31
0.0
210
0.0
220
0.0
230
1.0
 40
0.4734702266
 41
4.384233202159895
 42
5.051373732710243
  0
LINE
  5
35F
330
1F
100
AcDbEntity
  8
0
  6
SLD-Сплошная
 62
     7
370
    25
100
AcDbLine
 10
145.1125426385
 20
51.8475956293
 30
0.0
 11
148.4791128449
 21
51.8475956171
 31
0.0
  0
LINE
  5
360
330
1F
100
AcDbEntity
  8
0
  6
SLD-Сплошная
 62
     7
370
    25
100
AcDbLine
 10
148.4791128449
 20
26.2476022192
 30
0.0
 11
145.1781713991
 21
26.2475956299
 31
0.0
  0
LINE
  5
361
330
1F
100
AcDbEntity
  8
0
  6
SLD-Сплошная
 62
     7
370
    25
100
AcDbLine
 10
139.4935309954
 20
-5.6293660192
 30
0.0
 11
140.8324630179
 21
-5.6293660192
 31
0.0
  0
LINE
  5
362
330
1F
100
AcDbEntity
  8
0
  6
SLD-Сплошная
 62
     7
370
    25
100
AcDbLine
 10
139.4935309954
 20
-5.6293660192
 30
0.0
 11
139.4935309982
 21
2.2875697249
 31
0.0
  0
LINE
  5
363
330
1F
100
AcDbEntity
  8
0
  6
SLD-Сплошная
 62
     7
370
    25
100
AcDbLine
 10
139.4935309982
 20
2.2875697249
 30
0.0
 11
127.2130955775
 21
2.2875697249
 31
0.0
  0
LINE
  5
364
330
1F
100
AcDbEntity
  8
0
  6
SLD-Сплошная
 62
     7
370
    25
100
AcDbLine
 10
127.2130955775
 20
3.4220283854
 30
0.0
 11
127.2130955775
 21
2.2875697249
 31
0.0
  0
LINE
  5
365
330
1F
100
AcDbEntity
  8
0
  6
SLD-Сплошная
 62
     7
370
    25
100
AcDbLine
 10
139.4935309982
 20
3.4220283854
 30
0.0
 11
127.2130955775
 21
3.4220283854
 31
0.0
  0
LINE
  5
366
330
1F
100
AcDbEntity
  8
0
  6
SLD-Сплошная
 62
     7
370
    25
100
AcDbLine
 10
139.4935309982
 20
3.4220283854
 30
0.0
 11
139.4935309982
 21
24.1817701975
 31
0.0
  0
LINE
  5
367
330
1F
100
AcDbEntity
  8
0
  6
SLD-Сплошная
 62
     7
370
    25
100
AcDbLine
 10
139.4935309982
 20
24.1817701975
 30
0.0
 11
127.2130955775
 21
24.1817701975
 31
0.0
  0
LINE
  5
368
330
1F
100
AcDbEntity
  8
0
  6
SLD-Сплошная
 62
     7
370
    25
100
AcDbLine
 10
127.2130955775
 20
26.017362869
 30
0.0
 11
127.2130955775
 21
24.1817701975
 31
0.0
  0
LINE
  5
369
330
1F
100
AcDbEntity
  8
0
  6
SLD-Сплошная
 62
     7
370
    25
100
AcDbLine
 10
139.4935309982
 20
26.017362869
 30
0.0
 11
127.2130955775
 21
26.017362869
 31
0.0
  0
LINE
  5
36A
330
1F
100
AcDbEntity
  8
0
  6
SLD-Сплошная
 62
     7
370
    25
100
AcDbLine
 10
139.4935309982
 20
26.017362869
 30
0.0
 11
139.4935309982
 21
51.6778149441
 31
0.0
  0
LINE
  5
36B
330
1F
100
AcDbEntity
  8
0
  6
SLD-Сплошная
 62
     7
370
    25
100
AcDbLine
 10
139.4935309982
 20
51.6778149441
 30
0.0
 11
127.2130955775
 21
51.6778149441
 31
0.0
  0
LINE
  5
36C
330
1F
100
AcDbEntity
  8
0
  6
SLD-Сплошная
 62
     7
370
    25
100
AcDbLine
 10
127.2130955775
 20
53.5134076156
 30
0.0
 11
127.2130955775
 21
51.6778149441
 31
0.0
  0
LINE
  5
36D
330
1F
100
AcDbEntity
  8
0
  6
SLD-Сплошная
 62
     7
370
    25
100
AcDbLine
 10
139.4935309982
 20
53.5134076156
 30
0.0
 11
127.2130955775
 21
53.5134076156
 31
0.0
  0
LINE
  5
36E
330
1F
100
AcDbEntity
  8
0
  6
SLD-Сплошная
 62
     7
370
    25
100
AcDbLine
 10
139.4935309982
 20
53.5134076156
 30
0.0
 11
139.4935309982
 21
74.2731494277
 31
0.0
  0
LINE
  5
36F
330
1F
100
AcDbEntity
  8
0
  6
SLD-Сплошная
 62
     7
370
    25
100
AcDbLine
 10
139.4935309982
 20
74.2731494277
 30
0.0
 11
127.2130955775
 21
74.2731494277
 31
0.0
  0
LINE
  5
370
330
1F
100
AcDbEntity
  8
0
  6
SLD-Сплошная
 62
     7
370
    25
100
AcDbLine
 10
127.2130955775
 20
75.4076080882
 30
0.0
 11
127.2130955775
 21
74.2731494277
 31
0.0
  0
LINE
  5
371
330
1F
100
AcDbEntity
  8
0
  6
SLD-Сплошная
 62
     7
370
    25
100
AcDbLine
 10
139.4935309982
 20
75.4076080882
 30
0.0
 11
127.2130955775
 21
75.4076080882
 31
0.0
  0
LINE
  5
372
330
1F
100
AcDbEntity
  8
0
  6
SLD-Сплошная
 62
     7
370
    25
100
AcDbLine
 10
139.4935309982
 20
75.4076080882
 30
0.0
 11
139.4935309954
 21
83.3245438323
 31
0.0
  0
LINE
  5
373
330
1F
100
AcDbEntity
  8
0
  6
SLD-Сплошная
 62
     7
370
    25
100
AcDbLine
 10
139.4935309954
 20
83.3245438323
 30
0.0
 11
140.8324630179
 21
83.3245438323
 31
0.0
  0
LINE
  5
374
330
1F
100
AcDbEntity
  8
0
  6
SLD-Сплошная
 62
     7
370
    25
100
AcDbLine
 10
144.8324630179
 20
-5.6524110934
 30
0.0
 11
144.8324630179
 21
83.3475889066
 31
0.0
  0
SPLINE
  5
375
330
1F
100
AcDbEntity
  8
0
  6
SLD-Сплошная
 62
     7
370
    25
100
AcDbSpline
210
0.0
220
0.0
230
1.0
 70
     8
 71
     3
 72
     8
 73
     4
 74
     0
 42
0.00000001
 43
0.00000001
 40
0.0
 40
0.0
 40
0.0
 40
0.0
 40
1.0
 40
1.0
 40
1.0
 40
1.0
 10
138.6716125888371
 20
50.75773056221275
 30
0.0
 10
138.6122343388861
 20
50.69115429554392
 30
0.0
 10
138.5528736568123
 20
50.62457376071713
 30
0.0
 10
138.4935309950434
 20
50.55798884781736
 30
0.0
  0
SPLINE
  5
376
330
1F
100
AcDbEntity
  8
0
  6
SLD-Сплошная
 62
     7
370
    25
100
AcDbSpline
210
0.0
220
0.0
230
1.0
 70
     8
 71
     3
 72
    11
 73
     7
 74
     0
 42
0.00000001
 43
0.00000001
 40
0.0
 40
0.0
 40
0.0
 40
0.0
 40
1.0
 40
1.0
 40
1.0
 40
1.097249905497013
 40
1.097249905497013
 40
1.097249905497013
 40
1.097249905497013
 10
138.6716125886934
 20
50.75773056222985
 30
0.0
 10
138.9209796941907
 20
51.03732672716103
 30
0.0
 10
139.1706525898141
 20
51.31684353018937
 30
0.0
 10
139.4206008581066
 20
51.59628886559084
 30
0.0
 10
139.4449083035771
 20
51.62346489805021
 30
0.0
 10
139.4692157490477
 20
51.6506409305096
 30
0.0
 10
139.4935231945183
 20
51.67781696296897
 30
0.0
  0
SPLINE
  5
377
330
1F
100
AcDbEntity
  8
0
  6
SLD-Сплошная
 62
     7
370
    25
100
AcDbSpline
210
0.0
220
0.0
230
1.0
 70
     8
 71
     3
 72
    11
 73
     7
 74
     0
 42
0.00000001
 43
0.00000001
 40
-0.0972500810765855
 40
-0.0972500810765855
 40
-0.0972500810765855
 40
-0.0972500810765855
 40
0.0
 40
0.0
 40
0.0
 40
1.0
 40
1.0
 40
1.0
 40
1.0
 10
139.4935231945185
 20
26.01736085018205
 30
0.0
 10
139.4692157490475
 20
26.04453688264108
 30
0.0
 10
139.4449083035765
 20
26.0717129151001
 30
0.0
 10
139.4206008581056
 20
26.09888894755909
 30
0.0
 10
139.1706530410765
 20
26.37833377843399
 30
0.0
 10
138.9209801603972
 20
26.65785056326791
 30
0.0
 10
138.6716125886906
 20
26.93744725092107
 30
0.0
  0
SPLINE
  5
378
330
1F
100
AcDbEntity
  8
0
  6
SLD-Сплошная
 62
     7
370
    25
100
AcDbSpline
210
0.0
220
0.0
230
1.0
 70
     8
 71
     3
 72
     8
 73
     4
 74
     0
 42
0.00000001
 43
0.00000001
 40
0.0
 40
0.0
 40
0.0
 40
0.0
 40
1.0
 40
1.0
 40
1.0
 40
1.0
 10
138.6716125888211
 20
26.93744725095281
 30
0.0
 10
138.6122343388754
 20
27.00402351761576
 30
0.0
 10
138.5528736568069
 20
27.07060405243656
 30
0.0
 10
138.4935309950433
 20
27.13718896533046
 30
0.0
  0
LINE
  5
379
330
1F
100
AcDbEntity
  8
0
  6
SLD-Сплошная
 62
     7
370
    25
100
AcDbLine
 10
138.493530995
 20
50.5579888478
 30
0.0
 11
138.493530995
 21
27.1371889653
 31
0.0
  0
ARC
  5
37A
330
1F
100
AcDbEntity
  8
0
  6
SLD-Сплошная
 62
     7
370
    25
100
AcDbCircle
 10
240.9366822128
 20
49.6991651318
 30
0.0
 40
116.1631693592881
100
AcDbArc
 50
191.1995466307
 51
191.7631649233
  0
LINE
  5
37B
330
1F
100
AcDbEntity
  8
0
  6
SLD-Сплошная
 62
     7
370
    25
100
AcDbLine
 10
138.493530995
 20
27.1371889653
 30
0.0
 11
126.9856438364
 21
27.1371889653
 31
0.0
  0
LINE
  5
37C
330
1F
100
AcDbEntity
  8
0
  6
SLD-Сплошная
 62
     7
370
    25
100
AcDbLine
 10
138.493530995
 20
50.5579888478
 30
0.0
 11
126.9856438364
 21
50.5579888478
 31
0.0
  0
ARC
  5
37D
330
1F
100
AcDbEntity
  8
0
  6
SLD-Сплошная
 62
     7
370
    25
100
AcDbCircle
 10
240.9366822156
 20
27.9960126808
 30
0.0
 40
116.163169362174
100
AcDbArc
 50
168.2368350767
 51
168.8004533693
  0
ARC
  5
37E
330
1F
100
AcDbEntity
  8
0
  6
SLD-Сплошная
 62
     7
370
    25
100
AcDbCircle
 10
132.9903348755
 20
34.8899778452
 30
0.0
 40
12.1672595490212
100
AcDbArc
 50
240.4283090506
 51
241.6524701313
  0
LINE
  5
37F
330
1F
100
AcDbEntity
  8
0
  6
SLD-Сплошная
 62
     7
370
    25
100
AcDbLine
 10
126.9856438364
 20
5.3598141084
 30
0.0
 11
126.9856438364
 21
24.3076392352
 31
0.0
  0
ARC
  5
380
330
1F
100
AcDbEntity
  8
0
  6
SLD-Сплошная
 62
     7
370
    25
100
AcDbCircle
 10
458.9799979973
 20
43.3461193712
 30
0.0
 40
334.1604563412851
100
AcDbArc
 50
186.5273131866
 51
186.8618510254
  0
ARC
  5
381
330
1F
100
AcDbEntity
  8
0
  6
SLD-Сплошная
 62
     7
370
    25
100
AcDbCircle
 10
284.3191390546
 20
29.9687883364
 30
0.0
 40
159.5260441459148
100
AcDbArc
 50
189.5103205305
 51
189.9926373658
  0
LINE
  5
382
330
1F
100
AcDbEntity
  8
0
  6
SLD-Сплошная
 62
     7
370
    25
100
AcDbLine
 10
126.9856438364
 20
-3.6177049227
 30
0.0
 11
126.9856438364
 21
3.6110562023
 31
0.0
  0
ARC
  5
383
330
1F
100
AcDbEntity
  8
0
  6
SLD-Сплошная
 62
     7
370
    25
100
AcDbCircle
 10
502.1423540073
 20
37.781330748
 30
0.0
 40
377.4340172012792
100
AcDbArc
 50
186.1742478345
 51
186.297185854
  0
SPLINE
  5
384
330
1F
100
AcDbEntity
  8
0
  6
SLD-Сплошная
 62
     7
370
    25
100
AcDbSpline
210
0.0
220
0.0
230
1.0
 70
     8
 71
     3
 72
     8
 73
     4
 74
     0
 42
0.00000001
 43
0.00000001
 40
0.0
 40
0.0
 40
0.0
 40
0.0
 40
1.0
 40
1.0
 40
1.0
 40
1.0
 10
126.8976786967027
 20
-2.812646536436946
 30
0.0
 10
126.8940120955097
 20
-2.778753020755871
 30
0.0
 10
126.8903190034339
 20
-2.744727556392483
 30
0.0
 10
126.8865994358182
 20
-2.710570208067899
 30
0.0
  0
ARC
  5
385
330
1F
100
AcDbEntity
  8
0
  6
SLD-Сплошная
 62
     7
370
    25
100
AcDbCircle
 10
508.060549144
 20
38.7974024495
 30
0.0
 40
383.4272965378011
100
AcDbArc
 50
186.1673746609
 51
186.2147413385
  0
SPLINE
  5
386
330
1F
100
AcDbEntity
  8
0
  6
SLD-Сплошная
 62
     7
370
    25
100
AcDbSpline
210
0.0
220
0.0
230
1.0
 70
     8
 71
     3
 72
    10
 73
     6
 74
     0
 42
0.00000001
 43
0.00000001
 40
0.0
 40
0.0
 40
0.0
 40
0.0
 40
0.5
 40
0.5
 40
1.0
 40
1.0
 40
1.0
 40
1.0
 10
126.8524148673897
 20
-2.395437841946388
 30
0.0
 10
126.833651735786
 20
-2.221796551777865
 30
0.0
 10
126.8152208064416
 20
-2.048835915133829
 30
0.0
 10
126.7790226730002
 20
-1.706122490740224
 30
0.0
 10
126.7612326073528
 20
-1.536066727123864
 30
0.0
 10
126.7436154476825
 20
-1.366613312591913
 30
0.0
  0
SPLINE
  5
387
330
1F
100
AcDbEntity
  8
0
  6
SLD-Сплошная
 62
     7
370
    25
100
AcDbSpline
210
0.0
220
0.0
230
1.0
 70
     8
 71
     3
 72
    11
 73
     7
 74
     0
 42
0.00000001
 43
0.00000001
 40
0.0
 40
0.0
 40
0.0
 40
0.0
 40
0.248237625732973
 40
0.497650129940752
 40
0.7482375741084935
 40
1.0
 40
1.0
 40
1.0
 40
1.0
 10
126.0965657346312
 20
5.339395710756964
 30
0.0
 10
126.1459220989944
 20
4.784107153547219
 30
0.0
 10
126.244868425387
 20
3.670901925958953
 30
0.0
 10
126.4030417303468
 20
1.998006775746082
 30
0.0
 10
126.5682879130842
 20
0.3178386246202938
 30
0.0
 10
126.685081876923
 20
-0.8042544858318166
 30
0.0
 10
126.7436154476833
 20
-1.366613312619697
 30
0.0
  0
SPLINE
  5
388
330
1F
100
AcDbEntity
  8
0
  6
SLD-Сплошная
 62
     7
370
    25
100
AcDbSpline
210
0.0
220
0.0
230
1.0
 70
     8
 71
     3
 72
    17
 73
    13
 74
     0
 42
0.00000001
 43
0.00000001
 40
0.0
 40
0.0
 40
0.0
 40
0.0
 40
0.0616665966929745
 40
0.1234862562495982
 40
0.1859861904235
 40
0.249676696784952
 40
0.3738611362990351
 40
0.4994950694492817
 40
0.6251462813688055
 40
0.749507339712334
 40
0.8759561756138815
 40
1.0
 40
1.0
 40
1.0
 40
1.0
 10
125.6944141960329
 20
10.27309568939573
 30
0.0
 10
125.6944764276513
 20
10.27228677656273
 30
0.0
 10
125.6946010453535
 20
10.27066694309152
 30
0.0
 10
125.6956031818706
 20
10.25764402730695
 30
0.0
 10
125.6972032532819
 20
10.23685644429184
 30
0.0
 10
125.7001494850299
 20
10.19860177422513
 30
0.0
 10
125.7052097556823
 20
10.13296808308272
 30
0.0
 10
125.7133002017301
 20
10.02810544001877
 30
0.0
 10
125.7231003459698
 20
9.901212196372265
 30
0.0
 10
125.7344931802967
 20
9.753720820759808
 30
0.0
 10
125.7470481854899
 20
9.591219845362014
 30
0.0
 10
125.7561648747014
 20
9.473129228381751
 30
0.0
 10
125.7606794540676
 20
9.41465082131973
 30
0.0
  0
ARC
  5
389
330
1F
100
AcDbEntity
  8
0
  6
SLD-Сплошная
 62
     7
370
    25
100
AcDbCircle
 10
509.5980903435
 20
38.8475889066
 30
0.0
 40
384.9656273255351
100
AcDbArc
 50
184.0591073009
 51
184.2567565689
  0
LINE
  5
38A
330
1F
100
AcDbEntity
  8
0
  6
SLD-Сплошная
 62
     7
370
    25
100
AcDbLine
 10
125.5981271636
 20
11.5975889066
 30
0.0
 11
125.5981271636
 21
38.8475889066
 31
0.0
  0
LINE
  5
38B
330
1F
100
AcDbEntity
  8
0
  6
SLD-Сплошная
 62
     7
370
    25
100
AcDbLine
 10
125.5981271636
 20
38.8475889066
 30
0.0
 11
125.5981271636
 21
66.0975889066
 31
0.0
  0
ARC
  5
38C
330
1F
100
AcDbEntity
  8
0
  6
SLD-Сплошная
 62
     7
370
    25
100
AcDbCircle
 10
509.5980903435
 20
38.8475889066
 30
0.0
 40
384.9656273255352
100
AcDbArc
 50
175.7432434311
 51
175.9408926991
  0
SPLINE
  5
38D
330
1F
100
AcDbEntity
  8
0
  6
SLD-Сплошная
 62
     7
370
    25
100
AcDbSpline
210
0.0
220
0.0
230
1.0
 70
     8
 71
     3
 72
    17
 73
    13
 74
     0
 42
0.00000001
 43
0.00000001
 40
0.0
 40
0.0
 40
0.0
 40
0.0
 40
0.0619212385613645
 40
0.1239507297143508
 40
0.186623495800239
 40
0.2504583057445863
 40
0.3746072643609452
 40
0.5003217186473438
 40
0.625815615285262
 40
0.7501647752202459
 40
0.8763241366179656
 40
1.0
 40
1.0
 40
1.0
 40
1.0
 10
125.760679454068
 20
68.28052699182389
 30
0.0
 10
125.7584168043665
 20
68.25121567123661
 30
0.0
 10
125.7538875493306
 20
68.19254178712035
 30
0.0
 10
125.7472770998729
 20
68.10694084419185
 30
0.0
 10
125.7408256019929
 20
68.0234192989973
 30
0.0
 10
125.7326293989367
 20
67.91732517259058
 30
0.0
 10
125.7231287725796
 20
67.79433001304052
 30
0.0
 10
125.7133295148923
 20
67.66744637956229
 30
0.0
 10
125.7052177865256
 20
67.56230782227242
 30
0.0
 10
125.6991826316333
 20
67.48403223138365
 30
0.0
 10
125.6951701477645
 20
67.43190631703112
 30
0.0
 10
125.6946645044872
 20
67.4253350809547
 30
0.0
 10
125.6944141960331
 20
67.42208212374678
 30
0.0
  0
ARC
  5
38E
330
1F
100
AcDbEntity
  8
0
  6
SLD-Сплошная
 62
     7
370
    25
100
AcDbCircle
 10
508.0549882077
 20
38.8855807203
 30
0.0
 40
383.4220792790517
100
AcDbArc
 50
173.9853213646
 51
174.9920849779
  0
SPLINE
  5
38F
330
1F
100
AcDbEntity
  8
0
  6
SLD-Сплошная
 62
     7
370
    25
100
AcDbSpline
210
0.0
220
0.0
230
1.0
 70
     8
 71
     3
 72
    10
 73
     6
 74
     0
 42
0.00000001
 43
0.00000001
 40
0.0
 40
0.0
 40
0.0
 40
0.0
 40
0.5
 40
0.5
 40
1.0
 40
1.0
 40
1.0
 40
1.0
 10
126.8524224591767
 20
80.09068591540624
 30
0.0
 10
126.8336571594701
 20
79.91702776265954
 30
0.0
 10
126.8152238555984
 20
79.74404624381812
 30
0.0
 10
126.7790315877789
 20
79.40137247206783
 30
0.0
 10
126.7612495193123
 20
79.23137688134639
 30
0.0
 10
126.7436154476775
 20
79.06179112570254
 30
0.0
  0
ARC
  5
390
330
1F
100
AcDbEntity
  8
0
  6
SLD-Сплошная
 62
     7
370
    25
100
AcDbCircle
 10
508.0605515916
 20
38.8977750981
 30
0.0
 40
383.4272989997098
100
AcDbArc
 50
173.7852586617
 51
173.8326241184
  0
SPLINE
  5
391
330
1F
100
AcDbEntity
  8
0
  6
SLD-Сплошная
 62
     7
370
    25
100
AcDbSpline
210
0.0
220
0.0
230
1.0
 70
     8
 71
     3
 72
     8
 73
     4
 74
     0
 42
0.00000001
 43
0.00000001
 40
0.0
 40
0.0
 40
0.0
 40
0.0
 40
1.0
 40
1.0
 40
1.0
 40
1.0
 10
126.8865994358169
 20
80.40574802120942
 30
0.0
 10
126.8903190034327
 20
80.4399053695339
 30
0.0
 10
126.8940120955084
 20
80.4739308338972
 30
0.0
 10
126.8976786967015
 20
80.50782434957817
 30
0.0
  0
ARC
  5
392
330
1F
100
AcDbEntity
  8
0
  6
SLD-Сплошная
 62
     7
370
    25
100
AcDbCircle
 10
502.1423541611
 20
39.9138470481
 30
0.0
 40
377.4340173560721
100
AcDbArc
 50
173.7028141459
 51
173.8257521654
  0
LINE
  5
393
330
1F
100
AcDbEntity
  8
0
  6
SLD-Сплошная
 62
     7
370
    25
100
AcDbLine
 10
126.9856438364
 20
74.0841216108
 30
0.0
 11
126.9856438364
 21
81.3128827358
 31
0.0
  0
ARC
  5
394
330
1F
100
AcDbEntity
  8
0
  6
SLD-Сплошная
 62
     7
370
    25
100
AcDbCircle
 10
284.3191390543
 20
47.7263894768
 30
0.0
 40
159.5260441456152
100
AcDbArc
 50
170.0073626342
 51
170.4896794695
  0
ARC
  5
395
330
1F
100
AcDbEntity
  8
0
  6
SLD-Сплошная
 62
     7
370
    25
100
AcDbCircle
 10
458.9799980213
 20
34.3490584391
 30
0.0
 40
334.1604563654902
100
AcDbArc
 50
173.1381489746
 51
173.4726868133
  0
LINE
  5
396
330
1F
100
AcDbEntity
  8
0
  6
SLD-Сплошная
 62
     7
370
    25
100
AcDbLine
 10
126.9856438364
 20
53.3875385779
 30
0.0
 11
126.9856438364
 21
72.3353637047
 31
0.0
  0
ARC
  5
397
330
1F
100
AcDbEntity
  8
0
  6
SLD-Сплошная
 62
     7
370
    25
100
AcDbCircle
 10
132.9903348766
 20
42.8051999659
 30
0.0
 40
12.1672595512754
100
AcDbArc
 50
118.3475298688
 51
119.5716909492
  0
LINE
  5
398
330
1F
100
AcDbEntity
  8
0
  6
SLD-Сплошная
 62
     7
370
    25
100
AcDbLine
 10
126.9856438364
 20
27.1371889653
 30
0.0
 11
126.9856438364
 21
50.5579888478
 31
0.0
  0
SPLINE
  5
399
330
1F
100
AcDbEntity
  8
0
  6
SLD-Сплошная
 62
     7
370
    25
100
AcDbSpline
210
0.0
220
0.0
230
1.0
 70
     8
 71
     3
 72
    11
 73
     7
 74
     0
 42
0.00000001
 43
0.00000001
 40
-0.0972500810766029
 40
-0.0972500810766029
 40
-0.0972500810766029
 40
-0.0972500810766029
 40
0.0
 40
0.0
 40
0.0
 40
1.0
 40
1.0
 40
1.0
 40
1.0
 10
139.4935231945185
 20
3.422024891937964
 30
0.0
 10
139.4692157490475
 20
3.469051236368606
 30
0.0
 10
139.4449083035765
 20
3.516077580799248
 30
0.0
 10
139.4206008581056
 20
3.563103925229884
 30
0.0
 10
139.1706530410765
 20
4.046664904408984
 30
0.0
 10
138.9209801603972
 20
4.530350395196892
 30
0.0
 10
138.6716125886906
 20
5.014174152580687
 30
0.0
  0
SPLINE
  5
39A
330
1F
100
AcDbEntity
  8
0
  6
SLD-Сплошная
 62
     7
370
    25
100
AcDbSpline
210
0.0
220
0.0
230
1.0
 70
     8
 71
     3
 72
     8
 73
     4
 74
     0
 42
0.00000001
 43
0.00000001
 40
0.0
 40
0.0
 40
0.0
 40
0.0
 40
1.0
 40
1.0
 40
1.0
 40
1.0
 10
138.6716125888212
 20
5.014174152638239
 30
0.0
 10
138.6122343388754
 20
5.129380022063902
 30
0.0
 10
138.552873656807
 20
5.244593277257056
 30
0.0
 10
138.4935309950433
 20
5.35981410841914
 30
0.0
  0
LINE
  5
39B
330
1F
100
AcDbEntity
  8
0
  6
SLD-Сплошная
 62
     7
370
    25
100
AcDbLine
 10
138.4935309954
 20
24.1817701975
 30
0.0
 11
138.493530995
 21
5.3598141084
 31
0.0
  0
LINE
  5
39C
330
1F
100
AcDbEntity
  8
0
  6
SLD-Сплошная
 62
     7
370
    25
100
AcDbLine
 10
138.493530995
 20
72.3353637047
 30
0.0
 11
138.4935309954
 21
53.5134076156
 31
0.0
  0
SPLINE
  5
39D
330
1F
100
AcDbEntity
  8
0
  6
SLD-Сплошная
 62
     7
370
    25
100
AcDbSpline
210
0.0
220
0.0
230
1.0
 70
     8
 71
     3
 72
     8
 73
     4
 74
     0
 42
0.00000001
 43
0.00000001
 40
0.0
 40
0.0
 40
0.0
 40
0.0
 40
1.0
 40
1.0
 40
1.0
 40
1.0
 10
138.6716125888374
 20
72.68100366053953
 30
0.0
 10
138.6122343388864
 20
72.56579779110373
 30
0.0
 10
138.5528736568125
 20
72.45058453590018
 30
0.0
 10
138.4935309950436
 20
72.33536370472795
 30
0.0
  0
SPLINE
  5
39E
330
1F
100
AcDbEntity
  8
0
  6
SLD-Сплошная
 62
     7
370
    25
100
AcDbSpline
210
0.0
220
0.0
230
1.0
 70
     8
 71
     3
 72
    11
 73
     7
 74
     0
 42
0.00000001
 43
0.00000001
 40
0.0
 40
0.0
 40
0.0
 40
0.0
 40
1.0
 40
1.0
 40
1.0
 40
1.097249905496981
 40
1.097249905496981
 40
1.097249905496981
 40
1.097249905496981
 10
138.6716125886936
 20
72.68100366056929
 30
0.0
 10
138.9209796941909
 20
73.16482651341624
 30
0.0
 10
139.1706525898143
 20
73.64851203569573
 30
0.0
 10
139.4206008581068
 20
74.13207388791868
 30
0.0
 10
139.4449083035774
 20
74.17910023234931
 30
0.0
 10
139.469215749048
 20
74.22612657677996
 30
0.0
 10
139.4935231945186
 20
74.27315292121058
 30
0.0
  0
LINE
  5
39F
330
1F
100
AcDbEntity
  8
0
  6
SLD-Сплошная
 62
     7
370
    25
100
AcDbLine
 10
138.493530995
 20
5.3598141084
 30
0.0
 11
126.9856438364
 21
5.3598141084
 31
0.0
  0
LINE
  5
3A0
330
1F
100
AcDbEntity
  8
0
  6
SLD-Сплошная
 62
     7
370
    25
100
AcDbLine
 10
138.493530995
 20
72.3353637047
 30
0.0
 11
126.9856438364
 21
72.3353637047
 31
0.0
  0
LINE
  5
3A1
330
1F
100
AcDbEntity
  8
0
  6
SLD-Сплошная
 62
     7
370
    25
100
AcDbLine
 10
145.1125426385
 20
51.8475956293
 30
0.0
 11
144.8324630179
 21
51.8475956293
 31
0.0
  0
LINE
  5
3A2
330
1F
100
AcDbEntity
  8
0
  6
SLD-Сплошная
 62
     7
370
    25
100
AcDbLine
 10
145.1781713991
 20
26.2475956299
 30
0.0
 11
144.8324630179
 21
26.2475956299
 31
0.0
  0
LINE
  5
3A3
330
1F
100
AcDbEntity
  8
0
  6
SLD-Сплошная
 62
     7
370
    25
100
AcDbLine
 10
123.7769558702
 20
38.8475889066
 30
0.0
 11
123.7769558702
 21
66.0975889066
 31
0.0
  0
LINE
  5
3A4
330
1F
100
AcDbEntity
  8
0
  6
SLD-Сплошная
 62
     7
370
    25
100
AcDbLine
 10
123.7769558702
 20
11.5975889066
 30
0.0
 11
123.7769558702
 21
38.8475889066
 31
0.0
  0
SPLINE
  5
3A5
330
1F
100
AcDbEntity
  8
0
  6
SLD-Сплошная
 62
     7
370
    25
100
AcDbSpline
210
0.0
220
0.0
230
1.0
 70
     8
 71
     3
 72
    11
 73
     7
 74
     0
 42
0.00000001
 43
0.00000001
 40
-0.0891572405679591
 40
-0.0891572405679591
 40
-0.0891572405679591
 40
-0.0891572405679591
 40
0.0
 40
0.0
 40
0.0
 40
1.0
 40
1.0
 40
1.0
 40
1.0
 10
138.4935267680664
 20
-3.617706981232038
 30
0.0
 10
138.5207993389766
 20
-3.672604481543842
 30
0.0
 10
138.5480719098868
 20
-3.727501981855647
 30
0.0
 10
138.575344480797
 20
-3.782399482167464
 30
0.0
 10
138.8812374260752
 20
-4.398137474529065
 30
0.0
 10
139.187306623619
 20
-5.013789562436366
 30
0.0
 10
139.4935309954456
 20
-5.629366019184713
 30
0.0
  0
LINE
  5
3A6
330
1F
100
AcDbEntity
  8
0
  6
SLD-Сплошная
 62
     7
370
    25
100
AcDbLine
 10
138.4935309954
 20
2.2875697249
 30
0.0
 11
138.493530995
 21
-3.6177049227
 31
0.0
  0
SPLINE
  5
3A7
330
1F
100
AcDbEntity
  8
0
  6
SLD-Сплошная
 62
     7
370
    25
100
AcDbSpline
210
0.0
220
0.0
230
1.0
 70
     8
 71
     3
 72
    11
 73
     7
 74
     0
 42
0.00000001
 43
0.00000001
 40
0.0
 40
0.0
 40
0.0
 40
0.0
 40
1.0
 40
1.0
 40
1.0
 40
1.089157242070274
 40
1.089157242070274
 40
1.089157242070274
 40
1.089157242070274
 10
139.4935309954439
 20
83.32454383232363
 30
0.0
 10
139.1873066210554
 20
82.70896737043454
 30
0.0
 10
138.8812374209154
 20
82.09331527729063
 30
0.0
 10
138.5753444807954
 20
81.47757729531104
 30
0.0
 10
138.5480719098855
 20
81.42267979499982
 30
0.0
 10
138.5207993389756
 20
81.36778229468862
 30
0.0
 10
138.4935267680658
 20
81.31288479437737
 30
0.0
  0
LINE
  5
3A8
330
1F
100
AcDbEntity
  8
0
  6
SLD-Сплошная
 62
     7
370
    25
100
AcDbLine
 10
138.493530995
 20
81.3128827358
 30
0.0
 11
138.4935309954
 21
75.4076080882
 31
0.0
  0
LINE
  5
3A9
330
1F
100
AcDbEntity
  8
0
  6
SLD-Сплошная
 62
     7
370
    25
100
AcDbLine
 10
138.493530995
 20
-3.6177049227
 30
0.0
 11
126.9856438364
 21
-3.6177049227
 31
0.0
  0
LINE
  5
3AA
330
1F
100
AcDbEntity
  8
0
  6
SLD-Сплошная
 62
     7
370
    25
100
AcDbLine
 10
126.9856438364
 20
81.3128827358
 30
0.0
 11
138.493530995
 21
81.3128827358
 31
0.0
  0
SPLINE
  5
3AB
330
1F
100
AcDbEntity
  8
0
  6
SLD-Сплошная
 62
     7
370
    25
100
AcDbSpline
210
0.0
220
0.0
230
1.0
 70
    24
 71
     3
 72
    14
 73
    10
 74
     0
 42
0.00000001
 43
0.00000001
 40
0.0
 40
0.0
 40
0.0
 40
0.0
 40
0.25
 40
0.25
 40
0.5
 40
0.5
 40
0.75
 40
0.75
 40
1.0
 40
1.0
 40
1.0
 40
1.0
 10
123.4389918076859
 20
-5.15342569616891
 30
0.0
 10
123.4231096135793
 20
-5.275770719332856
 30
0.0
 10
123.4070245996491
 20
-5.399678120820706
 30
0.0
 10
123.3770693893783
 20
-5.630431558873633
 30
0.0
 10
123.3632130052603
 20
-5.737171195997099
 30
0.0
 10
123.3400000636153
 20
-5.915987036180514
 30
0.0
 10
123.3306542094761
 20
-5.98798078800359
 30
0.0
 10
123.3180062953323
 20
-6.085411239894589
 30
0.0
 10
123.3147100672313
 20
-6.110803015185316
 30
0.0
 10
123.3147100672293
 20
-6.110803015185421
 30
0.0
  0
SPLINE
  5
3AC
330
1F
100
AcDbEntity
  8
0
  6
SLD-Сплошная
 62
     7
370
    25
100
AcDbSpline
210
0.0
220
0.0
230
1.0
 70
    24
 71
     3
 72
    14
 73
    10
 74
     0
 42
0.00000001
 43
0.00000001
 40
0.0
 40
0.0
 40
0.0
 40
0.0
 40
0.25
 40
0.25
 40
0.5
 40
0.5
 40
0.75
 40
0.75
 40
1.0
 40
1.0
 40
1.0
 40
1.0
 10
123.3147100672281
 20
83.80598082832874
 30
0.0
 10
123.3147100672279
 20
83.80598082832933
 30
0.0
 10
123.3180062953356
 20
83.78058905303813
 30
0.0
 10
123.3306542094789
 20
83.68315860114875
 30
0.0
 10
123.3400000636191
 20
83.61116484932468
 30
0.0
 10
123.3632130052653
 20
83.43234900914027
 30
0.0
 10
123.3770693893811
 20
83.32560937201866
 30
0.0
 10
123.4070245996497
 20
83.0948559339648
 30
0.0
 10
123.4231096135799
 20
82.97094853247768
 30
0.0
 10
123.4389918076895
 20
82.84860350931389
 30
0.0
  0
LINE
  5
3AD
330
1F
100
AcDbEntity
  8
0
  6
SLD-Сплошная
 62
     7
370
    25
100
AcDbLine
 10
124.862684007
 20
5.8136770808
 30
0.0
 11
123.4389918077
 21
-5.1534256962
 31
0.0
  0
LINE
  5
3AE
330
1F
100
AcDbEntity
  8
0
  6
SLD-Сплошная
 62
     7
370
    25
100
AcDbLine
 10
123.4389918077
 20
82.8486035093
 30
0.0
 11
124.862684007
 21
71.8815007324
 31
0.0
  0
LINE
  5
3AF
330
1F
100
AcDbEntity
  8
0
  6
SLD-Сплошная
 62
     7
370
    25
100
AcDbLine
 10
140.8324630179
 20
83.3245438323
 30
0.0
 11
140.8324630179
 21
84.3960027751
 31
0.0
  0
LINE
  5
3B0
330
1F
100
AcDbEntity
  8
0
  6
SLD-Сплошная
 62
     7
370
    25
100
AcDbLine
 10
140.8324630179
 20
-6.7008249619
 30
0.0
 11
140.8324630179
 21
-5.6293660192
 31
0.0
  0
LINE
  5
3B1
330
1F
100
AcDbEntity
  8
0
  6
SLD-Сплошная
 62
     7
370
    25
100
AcDbLine
 10
140.8324630179
 20
-7.056696198
 30
0.0
 11
140.8324630179
 21
-6.7008249619
 31
0.0
  0
SPLINE
  5
3B2
330
1F
100
AcDbEntity
  8
0
  6
SLD-Сплошная
 62
     7
370
    25
100
AcDbSpline
210
0.0
220
0.0
230
1.0
 70
    24
 71
     3
 72
    18
 73
    14
 74
     0
 42
0.00000001
 43
0.00000001
 40
0.0
 40
0.0
 40
0.0
 40
0.0
 40
0.1249999999999976
 40
0.1249999999999976
 40
0.1874999999999964
 40
0.1874999999999964
 40
0.2187499999999958
 40
0.2187499999999958
 40
0.2499999999999952
 40
0.2499999999999952
 40
0.4999999999999963
 40
0.4999999999999963
 40
1.0
 40
1.0
 40
1.0
 40
1.0
 10
125.3317050859989
 20
9.426678809844335
 30
0.0
 10
125.3285438071777
 20
9.40232658697149
 30
0.0
 10
125.3175873594917
 20
9.317925978535435
 30
0.0
 10
125.2886654584373
 20
9.095132412957792
 30
0.0
 10
125.2769319321811
 20
9.004745749005147
 30
0.0
 10
125.2560122003201
 20
8.843595150936135
 30
0.0
 10
125.2484852919511
 20
8.785613251676336
 30
0.0
 10
125.2322906304741
 20
8.660861204190033
 30
0.0
 10
125.2190500497525
 20
8.55886527440262
 30
0.0
 10
125.1769068657957
 20
8.234224435587887
 30
0.0
 10
125.1352204502673
 20
7.913102212880222
 30
0.0
 10
125.0207850991919
 20
7.031574409918334
 30
0.0
 10
124.9417716733033
 20
6.422911692722182
 30
0.0
 10
124.8626840070107
 20
5.813677080775189
 30
0.0
  0
SPLINE
  5
3B3
330
1F
100
AcDbEntity
  8
0
  6
SLD-Сплошная
 62
     7
370
    25
100
AcDbSpline
210
0.0
220
0.0
230
1.0
 70
    24
 71
     3
 72
    14
 73
    10
 74
     0
 42
0.00000001
 43
0.00000001
 40
0.0
 40
0.0
 40
0.0
 40
0.0
 40
0.1249999999999998
 40
0.1249999999999998
 40
0.2499999999999997
 40
0.2499999999999997
 40
0.4999999999999993
 40
0.4999999999999993
 40
1.0
 40
1.0
 40
1.0
 40
1.0
 10
124.8626840070153
 20
71.88150073237318
 30
0.0
 10
124.8728603189557
 20
71.8031097297411
 30
0.0
 10
124.8877462015375
 20
71.6884395754181
 30
0.0
 10
124.9268625409229
 20
71.3871153745038
 30
0.0
 10
124.9577519778969
 20
71.14916532449728
 30
0.0
 10
125.0240242259695
 20
70.63865149557573
 30
0.0
 10
125.0559503117912
 20
70.39271584695653
 30
0.0
 10
125.1793275186044
 20
69.442306405879
 30
0.0
 10
125.2583895584879
 20
68.83326920134863
 30
0.0
 10
125.3317050860043
 20
68.26849900329938
 30
0.0
  0
LINE
  5
3B4
330
1F
100
AcDbEntity
  8
0
  6
SLD-Сплошная
 62
     7
370
    25
100
AcDbLine
 10
140.8324630179
 20
84.3960027751
 30
0.0
 11
140.8324630179
 21
84.7518740112
 31
0.0
  0
LINE
  5
3B5
330
1F
100
AcDbEntity
  8
0
  6
SLD-Сплошная
 62
     7
370
    25
100
AcDbLine
 10
140.8324630179
 20
-7.3524110934
 30
0.0
 11
140.8324630179
 21
-7.056696198
 31
0.0
  0
LINE
  5
3B6
330
1F
100
AcDbEntity
  8
0
  6
SLD-Сплошная
 62
     7
370
    25
100
AcDbLine
 10
124.4055570557
 20
85.0475889066
 30
0.0
 11
140.8324630179
 21
85.0475889066
 31
0.0
  0
LINE
  5
3B7
330
1F
100
AcDbEntity
  8
0
  6
SLD-Сплошная
 62
     7
370
    25
100
AcDbLine
 10
140.8324630179
 20
84.7518740112
 30
0.0
 11
140.8324630179
 21
85.0475889066
 31
0.0
  0
SPLINE
  5
3B8
330
1F
100
AcDbEntity
  8
0
  6
SLD-Сплошная
 62
     7
370
    25
100
AcDbSpline
210
0.0
220
0.0
230
1.0
 70
    24
 71
     3
 72
    10
 73
     6
 74
     0
 42
0.00000001
 43
0.00000001
 40
0.0
 40
0.0
 40
0.0
 40
0.0
 40
0.5000000000000001
 40
0.5000000000000001
 40
1.0
 40
1.0
 40
1.0
 40
1.0
 10
125.3410490896114
 20
9.498658306530587
 30
0.0
 10
125.3410475795191
 20
9.49864667386983
 30
0.0
 10
125.3400263419133
 20
9.49077979240488
 30
0.0
 10
125.3365629838989
 20
9.464100568264685
 30
0.0
 10
125.3341631345769
 20
9.445613851714093
 30
0.0
 10
125.3317050859989
 20
9.426678809844786
 30
0.0
  0
SPLINE
  5
3B9
330
1F
100
AcDbEntity
  8
0
  6
SLD-Сплошная
 62
     7
370
    25
100
AcDbSpline
210
0.0
220
0.0
230
1.0
 70
    24
 71
     3
 72
    10
 73
     6
 74
     0
 42
0.00000001
 43
0.00000001
 40
0.0
 40
0.0
 40
0.0
 40
0.0
 40
0.4896672476160287
 40
0.9808153049139183
 40
0.9999999999999999
 40
0.9999999999999999
 40
0.9999999999999999
 40
0.9999999999999999
 10
125.3317050860043
 20
68.26849900329978
 30
0.0
 10
125.3328939341054
 20
68.2593409708781
 30
0.0
 10
125.3352752255201
 20
68.24099721109874
 30
0.0
 10
125.3376557554922
 20
68.2226593169313
 30
0.0
 10
125.3383520494301
 20
68.21729556823756
 30
0.0
 10
125.338378224875
 20
68.21709393139821
 30
0.0
  0
ENDSEC
  0
SECTION
  2
OBJECTS
  0
DICTIONARY
  5
C
330
0
100
AcDbDictionary
281
     1
  3
ACAD_GROUP
350
D
  3
ACAD_LAYOUT
350
1A
  3
ACAD_MLINESTYLE
350
17
  3
ACAD_PLOTSETTINGS
350
19
  3
ACAD_PLOTSTYLENAME
350
E
  3
ACAD_SCALELIST
350
47
  3
DWGPROPS
350
3BA
  0
DICTIONARY
  5
D
102
{ACAD_REACTORS
330
C
102
}
330
C
100
AcDbDictionary
281
     1
  0
DICTIONARY
  5
1A
102
{ACAD_REACTORS
330
C
102
}
330
C
100
AcDbDictionary
281
     1
  3
Layout1
350
1E
  3
Layout2
350
26
  3
Model
350
22
  0
DICTIONARY
  5
17
102
{ACAD_REACTORS
330
C
102
}
330
C
100
AcDbDictionary
281
     1
  3
Standard
350
18
  0
DICTIONARY
  5
19
102
{ACAD_REACTORS
330
C
102
}
330
C
100
AcDbDictionary
281
     1
  0
ACDBDICTIONARYWDFLT
  5
E
102
{ACAD_REACTORS
330
C
102
}
330
C
100
AcDbDictionary
281
     1
  3
Normal
350
F
100
AcDbDictionaryWithDefault
340
F
  0
DICTIONARY
  5
47
102
{ACAD_REACTORS
330
C
102
}
330
C
100
AcDbDictionary
281
     1
  3
A0
350
48
  3
A1
350
49
  3
A2
350
4A
  3
A3
350
4B
  3
A4
350
4C
  3
A5
350
4D
  3
A6
350
4E
  3
A7
350
4F
  3
A8
350
50
  3
A9
350
51
  3
B0
350
52
  3
B1
350
53
  3
B2
350
54
  3
B3
350
55
  3
B4
350
56
  3
B5
350
57
  3
B6
350
58
  0
XRECORD
  5
3BA
102
{ACAD_REACTORS
330
C
102
}
330
C
100
AcDbXrecord
280
     1
  1
DWGPROPS COOKIE
  2

  3

  4

  6

  7

  8
inyankin
  9

300
=
301
=
302
=
303
=
304
=
305
=
306
=
307
=
308
=
309
=
 40
0.0
 41
2461039.554458576
 42
2461039.554459479
  1

 90
        0
  0
LAYOUT
  5
1E
102
{ACAD_REACTORS
330
1A
102
}
330
1A
100
AcDbPlotSettings
  1

  2
none_device
  4

  6

 40
0.0
 41
0.0
 42
0.0
 43
0.0
 44
0.0
 45
0.0
 46
0.0
 47
0.0
 48
0.0
 49
0.0
140
0.0
141
0.0
142
1.0
143
1.0
 70
   688
 72
     1
 73
     0
 74
     5
  7

 75
    16
147
1.0
148
0.0
149
0.0
100
AcDbLayout
  1
Layout1
 70
     1
 71
     1
 10
0.0
 20
0.0
 11
420.0
 21
297.0
 12
0.0
 22
0.0
 32
0.0
 14
1.0000000000E+20
 24
1.0000000000E+20
 34
1.0000000000E+20
 15
-1.0000000000E+20
 25
-1.0000000000E+20
 35
-1.0000000000E+20
146
0.0
 13
0.0
 23
0.0
 33
0.0
 16
1.0
 26
0.0
 36
0.0
 17
0.0
 27
1.0
 37
0.0
 76
     0
330
1B
  0
LAYOUT
  5
26
102
{ACAD_REACTORS
330
1A
102
}
330
1A
100
AcDbPlotSettings
  1

  2
none_device
  4

  6

 40
0.0
 41
0.0
 42
0.0
 43
0.0
 44
0.0
 45
0.0
 46
0.0
 47
0.0
 48
0.0
 49
0.0
140
0.0
141
0.0
142
1.0
143
1.0
 70
   688
 72
     1
 73
     0
 74
     5
  7

 75
    16
147
1.0
148
0.0
149
0.0
100
AcDbLayout
  1
Layout2
 70
     1
 71
     2
 10
0.0
 20
0.0
 11
0.0
 21
0.0
 12
0.0
 22
0.0
 32
0.0
 14
0.0
 24
0.0
 34
0.0
 15
0.0
 25
0.0
 35
0.0
146
0.0
 13
0.0
 23
0.0
 33
0.0
 16
1.0
 26
0.0
 36
0.0
 17
0.0
 27
1.0
 37
0.0
 76
     0
330
23
  0
LAYOUT
  5
22
102
{ACAD_REACTORS
330
1A
102
}
330
1A
100
AcDbPlotSettings
  1

  2
none_device
  4
Letter_(8.50_x_11.00_Inches)
  6

 40
6.35
 41
6.35
 42
6.35000508
 43
6.35000508
 44
215.9
 45
279.4
 46
0.0
 47
0.0
 48
0.0
 49
0.0
140
0.0
141
0.0
142
1.0
143
1.0
 70
  1712
 72
     1
 73
     0
 74
     0
  7

 75
     0
147
1.0
148
0.0
149
0.0
100
AcDbLayout
  1
Model
 70
     1
 71
     0
 10
0.0
 20
0.0
 11
431.8
 21
279.4
 12
0.0
 22
0.0
 32
0.0
 14
0.0
 24
0.0
 34
0.0
 15
431.8
 25
279.4
 35
0.0
146
0.0
 13
0.0
 23
0.0
 33
0.0
 16
1.0
 26
0.0
 36
0.0
 17
0.0
 27
1.0
 37
0.0
 76
     0
330
1F
331
29
  0
MLINESTYLE
  5
18
102
{ACAD_REACTORS
330
17
102
}
330
17
100
AcDbMlineStyle
  2
Standard
 70
     0
  3

 62
   256
 51
90.0
 52
90.0
 71
     2
 49
0.5
 62
   256
  6
BYLAYER
 49
-0.5
 62
   256
  6
BYLAYER
  0
ACDBPLACEHOLDER
  5
F
102
{ACAD_REACTORS
330
E
102
}
330
E
  0
SCALE
  5
48
102
{ACAD_REACTORS
330
47
102
}
330
47
100
AcDbScale
 70
     0
300
1:1
140
1.0
141
1.0
290
     1
  0
SCALE
  5
49
102
{ACAD_REACTORS
330
47
102
}
330
47
100
AcDbScale
 70
     0
300
1:2
140
1.0
141
2.0
290
     0
  0
SCALE
  5
4A
102
{ACAD_REACTORS
330
47
102
}
330
47
100
AcDbScale
 70
     0
300
1:4
140
1.0
141
4.0
290
     0
  0
SCALE
  5
4B
102
{ACAD_REACTORS
330
47
102
}
330
47
100
AcDbScale
 70
     0
300
1:5
140
1.0
141
5.0
290
     0
  0
SCALE
  5
4C
102
{ACAD_REACTORS
330
47
102
}
330
47
100
AcDbScale
 70
     0
300
1:8
140
1.0
141
8.0
290
     0
  0
SCALE
  5
4D
102
{ACAD_REACTORS
330
47
102
}
330
47
100
AcDbScale
 70
     0
300
1:10
140
1.0
141
10.0
290
     0
  0
SCALE
  5
4E
102
{ACAD_REACTORS
330
47
102
}
330
47
100
AcDbScale
 70
     0
300
1:16
140
1.0
141
16.0
290
     0
  0
SCALE
  5
4F
102
{ACAD_REACTORS
330
47
102
}
330
47
100
AcDbScale
 70
     0
300
1:20
140
1.0
141
20.0
290
     0
  0
SCALE
  5
50
102
{ACAD_REACTORS
330
47
102
}
330
47
100
AcDbScale
 70
     0
300
1:30
140
1.0
141
30.0
290
     0
  0
SCALE
  5
51
102
{ACAD_REACTORS
330
47
102
}
330
47
100
AcDbScale
 70
     0
300
1:40
140
1.0
141
40.0
290
     0
  0
SCALE
  5
52
102
{ACAD_REACTORS
330
47
102
}
330
47
100
AcDbScale
 70
     0
300
1:50
140
1.0
141
50.0
290
     0
  0
SCALE
  5
53
102
{ACAD_REACTORS
330
47
102
}
330
47
100
AcDbScale
 70
     0
300
1:100
140
1.0
141
100.0
290
     0
  0
SCALE
  5
54
102
{ACAD_REACTORS
330
47
102
}
330
47
100
AcDbScale
 70
     0
300
2:1
140
2.0
141
1.0
290
     0
  0
SCALE
  5
55
102
{ACAD_REACTORS
330
47
102
}
330
47
100
AcDbScale
 70
     0
300
4:1
140
4.0
141
1.0
290
     0
  0
SCALE
  5
56
102
{ACAD_REACTORS
330
47
102
}
330
47
100
AcDbScale
 70
     0
300
8:1
140
8.0
141
1.0
290
     0
  0
SCALE
  5
57
102
{ACAD_REACTORS
330
47
102
}
330
47
100
AcDbScale
 70
     0
300
10:1
140
10.0
141
1.0
290
     0
  0
SCALE
  5
58
102
{ACAD_REACTORS
330
47
102
}
330
47
100
AcDbScale
 70
     0
300
100:1
140
100.0
141
1.0
290
     0
  0
ENDSEC
  0
EOF
