ISO-10303-21;
HEADER;
FILE_DESCRIPTION(('STEP AP203'),
    '1');
FILE_NAME('iTEQ SMART-ëàìïà LED A60 4Âò 230Â W+RGB WIFI-BLE E27 ONI',
    '',
    ('UNSPECIFIED'),
    ('UNSPECIFIED'),
    'ASCON STEP Converter 1.6',
    'ASCON Math Kernel',
    '');
FILE_SCHEMA(('CONFIG_CONTROL_DESIGN'));
ENDSEC;

DATA;
#1=SHAPE_REPRESENTATION('NONE',(#2),#6);
#2=AXIS2_PLACEMENT_3D('',#3,#4,#5);
#3=CARTESIAN_POINT('',(0.,0.,0.));
#4=DIRECTION('',(0.,0.,1.));
#5=DIRECTION('',(1.,0.,0.));
#6=(GEOMETRIC_REPRESENTATION_CONTEXT(3)GLOBAL_UNCERTAINTY_ASSIGNED_CONTEXT((#8))
GLOBAL_UNIT_ASSIGNED_CONTEXT((#7,#9,#10))REPRESENTATION_CONTEXT('NONE','NONE'));
#7=(LENGTH_UNIT()NAMED_UNIT(*)SI_UNIT(.MILLI.,.METRE.));
#8=UNCERTAINTY_MEASURE_WITH_UNIT(LENGTH_MEASURE(1.E-005),#7,'NONE','NONE');
#9=(NAMED_UNIT(*)PLANE_ANGLE_UNIT()SI_UNIT($,.RADIAN.));
#10=(NAMED_UNIT(*)SI_UNIT($,.STERADIAN.)SOLID_ANGLE_UNIT());
#11=SHAPE_DEFINITION_REPRESENTATION(#12,#1);
#12=PRODUCT_DEFINITION_SHAPE('NONE','NONE',#13);
#13=PRODUCT_DEFINITION('','UNSPECIFIED',#14,#22);
#14=PRODUCT_DEFINITION_FORMATION_WITH_SPECIFIED_SOURCE('ANY','UNSPECIFIED',#15,.NOT_KNOWN.);
#15=PRODUCT('','iTEQ SMART-\X2\043B0430043C043F0430\X0\ LED A60 4\X2\04120442\X0\ 230\X2\0412\X0\ W+RGB WIFI-BLE E27 ONI',
'NONE',(#25));
#16=PERSON('UNSPECIFIED','Dima-PC','UNSPECIFIED',('UNSPECIFIED'),('UNSPECIFIED'),
('UNSPECIFIED'));
#17=ORGANIZATION('UNSPECIFIED','UNSPECIFIED','UNSPECIFIED');
#18=PERSON_AND_ORGANIZATION(#16,#17);
#19=PERSON_AND_ORGANIZATION_ROLE('design_owner');
#20=CC_DESIGN_PERSON_AND_ORGANIZATION_ASSIGNMENT(#18,#19,(#15));
#21=PRODUCT_RELATED_PRODUCT_CATEGORY('detail','',(#15));
#22=DESIGN_CONTEXT('detailed design',#23,'design');
#23=APPLICATION_CONTEXT('configuration controlled 3d designs of mechanical parts and assemblies');
#24=APPLICATION_PROTOCOL_DEFINITION('international standard','config_control_design',
1994,#23);
#25=MECHANICAL_CONTEXT('NONE',#23,'mechanical');
#26=CC_DESIGN_DATE_AND_TIME_ASSIGNMENT(#27,#31,(#13));
#27=DATE_AND_TIME(#28,#29);
#28=CALENDAR_DATE(0,1,1);
#29=LOCAL_TIME(0,0,0.,#30);
#30=COORDINATED_UNIVERSAL_TIME_OFFSET(0,0,.AHEAD.);
#31=DATE_TIME_ROLE('creation_date');
#32=CC_DESIGN_APPROVAL(#33,(#13));
#33=APPROVAL(#34,'UNSPECIFIED');
#34=APPROVAL_STATUS('not_yet_approved');
#35=APPROVAL_DATE_TIME(#36,#33);
#36=DATE_AND_TIME(#37,#38);
#37=CALENDAR_DATE(0,1,1);
#38=LOCAL_TIME(0,0,0.,#39);
#39=COORDINATED_UNIVERSAL_TIME_OFFSET(0,0,.AHEAD.);
#40=MANIFOLD_SOLID_BREP('',#41);
#41=CLOSED_SHELL('',(#53,#62,#71,#80,#89,#98,#107,#116,#125));
#42=COLOUR_RGB('',0.564705882352941,0.564705882352941,0.564705882352941);
#43=FILL_AREA_STYLE_COLOUR('',#42);
#44=FILL_AREA_STYLE($,(#43));
#45=SURFACE_STYLE_FILL_AREA(#44);
#46=SURFACE_SIDE_STYLE('',(#45));
#47=SURFACE_STYLE_USAGE(.BOTH.,#46);
#48=PRESENTATION_STYLE_ASSIGNMENT((#47));
#49=MECHANICAL_DESIGN_GEOMETRIC_PRESENTATION_REPRESENTATION('NONE',(#50,#61,#70,
#79,#88,#97,#106,#115,#124,#133),#6);
#50=STYLED_ITEM('',(#48),#40);
#51=ADVANCED_BREP_SHAPE_REPRESENTATION('NONE',(#40),#6);
#52=SHAPE_REPRESENTATION_RELATIONSHIP('','',#1,#51);
#53=ADVANCED_FACE('',(#134),#136,.T.);
#54=COLOUR_RGB('',0.847058823529412,0.847058823529412,0.847058823529412);
#55=FILL_AREA_STYLE_COLOUR('',#54);
#56=FILL_AREA_STYLE($,(#55));
#57=SURFACE_STYLE_FILL_AREA(#56);
#58=SURFACE_SIDE_STYLE('',(#57));
#59=SURFACE_STYLE_USAGE(.BOTH.,#58);
#60=PRESENTATION_STYLE_ASSIGNMENT((#59));
#61=STYLED_ITEM('',(#60),#53);
#62=ADVANCED_FACE('',(#141,#143),#145,.F.);
#63=COLOUR_RGB('',1.,1.,1.);
#64=FILL_AREA_STYLE_COLOUR('',#63);
#65=FILL_AREA_STYLE($,(#64));
#66=SURFACE_STYLE_FILL_AREA(#65);
#67=SURFACE_SIDE_STYLE('',(#66));
#68=SURFACE_STYLE_USAGE(.BOTH.,#67);
#69=PRESENTATION_STYLE_ASSIGNMENT((#68));
#70=STYLED_ITEM('',(#69),#62);
#71=ADVANCED_FACE('',(#150,#152),#154,.T.);
#72=COLOUR_RGB('',1.,1.,1.);
#73=FILL_AREA_STYLE_COLOUR('',#72);
#74=FILL_AREA_STYLE($,(#73));
#75=SURFACE_STYLE_FILL_AREA(#74);
#76=SURFACE_SIDE_STYLE('',(#75));
#77=SURFACE_STYLE_USAGE(.BOTH.,#76);
#78=PRESENTATION_STYLE_ASSIGNMENT((#77));
#79=STYLED_ITEM('',(#78),#71);
#80=ADVANCED_FACE('',(#159,#161),#163,.T.);
#81=COLOUR_RGB('',0.564705882352941,0.564705882352941,0.564705882352941);
#82=FILL_AREA_STYLE_COLOUR('',#81);
#83=FILL_AREA_STYLE($,(#82));
#84=SURFACE_STYLE_FILL_AREA(#83);
#85=SURFACE_SIDE_STYLE('',(#84));
#86=SURFACE_STYLE_USAGE(.BOTH.,#85);
#87=PRESENTATION_STYLE_ASSIGNMENT((#86));
#88=STYLED_ITEM('',(#87),#80);
#89=ADVANCED_FACE('',(#168,#170),#172,.T.);
#90=COLOUR_RGB('',0.564705882352941,0.564705882352941,0.564705882352941);
#91=FILL_AREA_STYLE_COLOUR('',#90);
#92=FILL_AREA_STYLE($,(#91));
#93=SURFACE_STYLE_FILL_AREA(#92);
#94=SURFACE_SIDE_STYLE('',(#93));
#95=SURFACE_STYLE_USAGE(.BOTH.,#94);
#96=PRESENTATION_STYLE_ASSIGNMENT((#95));
#97=STYLED_ITEM('',(#96),#89);
#98=ADVANCED_FACE('',(#177,#179),#181,.T.);
#99=COLOUR_RGB('',0.564705882352941,0.564705882352941,0.564705882352941);
#100=FILL_AREA_STYLE_COLOUR('',#99);
#101=FILL_AREA_STYLE($,(#100));
#102=SURFACE_STYLE_FILL_AREA(#101);
#103=SURFACE_SIDE_STYLE('',(#102));
#104=SURFACE_STYLE_USAGE(.BOTH.,#103);
#105=PRESENTATION_STYLE_ASSIGNMENT((#104));
#106=STYLED_ITEM('',(#105),#98);
#107=ADVANCED_FACE('',(#186,#188),#190,.T.);
#108=COLOUR_RGB('',1.,1.,1.);
#109=FILL_AREA_STYLE_COLOUR('',#108);
#110=FILL_AREA_STYLE($,(#109));
#111=SURFACE_STYLE_FILL_AREA(#110);
#112=SURFACE_SIDE_STYLE('',(#111));
#113=SURFACE_STYLE_USAGE(.BOTH.,#112);
#114=PRESENTATION_STYLE_ASSIGNMENT((#113));
#115=STYLED_ITEM('',(#114),#107);
#116=ADVANCED_FACE('',(#195,#197),#199,.T.);
#117=COLOUR_RGB('',0.564705882352941,0.564705882352941,0.564705882352941);
#118=FILL_AREA_STYLE_COLOUR('',#117);
#119=FILL_AREA_STYLE($,(#118));
#120=SURFACE_STYLE_FILL_AREA(#119);
#121=SURFACE_SIDE_STYLE('',(#120));
#122=SURFACE_STYLE_USAGE(.BOTH.,#121);
#123=PRESENTATION_STYLE_ASSIGNMENT((#122));
#124=STYLED_ITEM('',(#123),#116);
#125=ADVANCED_FACE('',(#204),#206,.F.);
#126=COLOUR_RGB('',0.564705882352941,0.564705882352941,0.564705882352941);
#127=FILL_AREA_STYLE_COLOUR('',#126);
#128=FILL_AREA_STYLE($,(#127));
#129=SURFACE_STYLE_FILL_AREA(#128);
#130=SURFACE_SIDE_STYLE('',(#129));
#131=SURFACE_STYLE_USAGE(.BOTH.,#130);
#132=PRESENTATION_STYLE_ASSIGNMENT((#131));
#133=STYLED_ITEM('',(#132),#125);
#134=FACE_OUTER_BOUND('',#135,.T.);
#135=EDGE_LOOP('',(#211));
#136=SPHERICAL_SURFACE('',#137,30.);
#137=AXIS2_PLACEMENT_3D('',#138,#139,#140);
#138=CARTESIAN_POINT('',(1.36994387701229E-015,24.5207623925734,0.));
#139=DIRECTION('',(1.55675440569579E-017,1.,-0.));
#140=DIRECTION('',(-1.,1.55675440569579E-017,0.));
#141=FACE_OUTER_BOUND('',#142,.T.);
#142=EDGE_LOOP('',(#212));
#143=FACE_OUTER_BOUND('',#144,.T.);
#144=EDGE_LOOP('',(#213));
#145=SURFACE_OF_REVOLUTION('',#146,#147);
#146=B_SPLINE_CURVE_WITH_KNOTS('',3,
(#214,#215,#216,#217,#218,#219,#220),
.UNSPECIFIED.,.F.,.F.,
(4,1,1,1,4),
(0.,0.443822409103465,0.647732729367215,0.79654760367587,1.),
.UNSPECIFIED.);
#147=AXIS1_PLACEMENT('',#148,#149);
#148=CARTESIAN_POINT('',(1.83697019872103E-015,54.5207623925734,0.));
#149=DIRECTION('',(1.55675440569579E-017,1.,-0.));
#150=FACE_OUTER_BOUND('',#151,.T.);
#151=EDGE_LOOP('',(#221));
#152=FACE_OUTER_BOUND('',#153,.T.);
#153=EDGE_LOOP('',(#222));
#154=CONICAL_SURFACE('',#155,14.75,0.694738276196703);
#155=AXIS2_PLACEMENT_3D('',#156,#157,#158);
#156=CARTESIAN_POINT('',(4.436750056233E-016,-34.9792376074266,0.));
#157=DIRECTION('',(1.55675440569579E-017,1.,-0.));
#158=DIRECTION('',(-1.,1.55675440569579E-017,0.));
#159=FACE_OUTER_BOUND('',#160,.T.);
#160=EDGE_LOOP('',(#223));
#161=FACE_OUTER_BOUND('',#162,.T.);
#162=EDGE_LOOP('',(#224));
#163=CYLINDRICAL_SURFACE('',#164,13.5);
#164=AXIS2_PLACEMENT_3D('',#165,#166,#167);
#165=CARTESIAN_POINT('',(1.24540352455663E-016,-55.4792376074266,0.));
#166=DIRECTION('',(1.55675440569579E-017,1.,-0.));
#167=DIRECTION('',(-1.,1.55675440569579E-017,0.));
#168=FACE_OUTER_BOUND('',#169,.T.);
#169=EDGE_LOOP('',(#225));
#170=FACE_OUTER_BOUND('',#171,.T.);
#171=EDGE_LOOP('',(#226));
#172=CONICAL_SURFACE('',#173,12.,0.785398163397448);
#173=AXIS2_PLACEMENT_3D('',#174,#175,#176);
#174=CARTESIAN_POINT('',(1.01189036370226E-016,-56.9792376074266,0.));
#175=DIRECTION('',(1.55675440569579E-017,1.,-0.));
#176=DIRECTION('',(-1.,1.55675440569579E-017,0.));
#177=FACE_BOUND('',#178,.T.);
#178=EDGE_LOOP('',(#227));
#179=FACE_BOUND('',#180,.T.);
#180=EDGE_LOOP('',(#228));
#181=PLANE('',#182);
#182=AXIS2_PLACEMENT_3D('',#183,#184,#185);
#183=CARTESIAN_POINT('',(7.78377202847895E-017,-58.4792376074266,0.));
#184=DIRECTION('',(-1.55675440569579E-017,-1.,0.));
#185=DIRECTION('',(-1.,1.55675440569579E-017,0.));
#186=FACE_OUTER_BOUND('',#187,.T.);
#187=EDGE_LOOP('',(#229));
#188=FACE_OUTER_BOUND('',#189,.T.);
#189=EDGE_LOOP('',(#230));
#190=CONICAL_SURFACE('',#191,6.5,0.643501108793284);
#191=AXIS2_PLACEMENT_3D('',#192,#193,#194);
#192=CARTESIAN_POINT('',(4.67026321708736E-017,-60.4792376074266,0.));
#193=DIRECTION('',(1.55675440569579E-017,1.,-0.));
#194=DIRECTION('',(-1.,1.55675440569579E-017,0.));
#195=FACE_BOUND('',#196,.T.);
#196=EDGE_LOOP('',(#231));
#197=FACE_BOUND('',#198,.T.);
#198=EDGE_LOOP('',(#232));
#199=PLANE('',#200);
#200=AXIS2_PLACEMENT_3D('',#201,#202,#203);
#201=CARTESIAN_POINT('',(1.55675440569578E-017,-62.4792376074266,0.));
#202=DIRECTION('',(-1.55675440569579E-017,-1.,0.));
#203=DIRECTION('',(-1.,1.55675440569579E-017,0.));
#204=FACE_OUTER_BOUND('',#205,.T.);
#205=EDGE_LOOP('',(#233));
#206=SURFACE_OF_REVOLUTION('',#207,#208);
#207=B_SPLINE_CURVE_WITH_KNOTS('',2,
(#234,#235,#236),
.UNSPECIFIED.,.F.,.F.,
(3,3),
(0.,1.),
.UNSPECIFIED.);
#208=AXIS1_PLACEMENT('',#209,#210);
#209=CARTESIAN_POINT('',(1.83697019872103E-015,54.5207623925734,0.));
#210=DIRECTION('',(1.55675440569579E-017,1.,-0.));
#211=ORIENTED_EDGE('',*,*,#237,.T.);
#212=ORIENTED_EDGE('',*,*,#238,.T.);
#213=ORIENTED_EDGE('',*,*,#237,.F.);
#214=CARTESIAN_POINT('',(-23.2163735324878,5.52076239257337,0.));
#215=CARTESIAN_POINT('',(-21.1285000508447,0.0295878646923029,0.));
#216=CARTESIAN_POINT('',(-17.6882245538684,-8.07977659129364,0.));
#217=CARTESIAN_POINT('',(-16.558652654353,-18.6664790813693,0.));
#218=CARTESIAN_POINT('',(-15.8033415654164,-26.059227208846,0.));
#219=CARTESIAN_POINT('',(-16.0745817998986,-30.7678643312696,0.));
#220=CARTESIAN_POINT('',(-16.,-33.4792376074266,0.));
#221=ORIENTED_EDGE('',*,*,#239,.T.);
#222=ORIENTED_EDGE('',*,*,#238,.F.);
#223=ORIENTED_EDGE('',*,*,#239,.F.);
#224=ORIENTED_EDGE('',*,*,#240,.T.);
#225=ORIENTED_EDGE('',*,*,#241,.T.);
#226=ORIENTED_EDGE('',*,*,#240,.F.);
#227=ORIENTED_EDGE('',*,*,#241,.F.);
#228=ORIENTED_EDGE('',*,*,#242,.T.);
#229=ORIENTED_EDGE('',*,*,#243,.T.);
#230=ORIENTED_EDGE('',*,*,#242,.F.);
#231=ORIENTED_EDGE('',*,*,#243,.F.);
#232=ORIENTED_EDGE('',*,*,#244,.T.);
#233=ORIENTED_EDGE('',*,*,#244,.F.);
#234=CARTESIAN_POINT('',(-4.5,-62.4792376074266,0.));
#235=CARTESIAN_POINT('',(-2.25,-63.4792376074266,0.));
#236=CARTESIAN_POINT('',(0.,-63.4792376074266,0.));
#237=EDGE_CURVE('',#245,#245,#246,.T.);
#238=EDGE_CURVE('',#247,#247,#248,.T.);
#239=EDGE_CURVE('',#249,#249,#250,.T.);
#240=EDGE_CURVE('',#251,#251,#252,.T.);
#241=EDGE_CURVE('',#253,#253,#254,.T.);
#242=EDGE_CURVE('',#255,#255,#256,.T.);
#243=EDGE_CURVE('',#257,#257,#258,.T.);
#244=EDGE_CURVE('',#259,#259,#260,.T.);
#245=VERTEX_POINT('',#261);
#246=CIRCLE('',#262,23.2163735324876);
#247=VERTEX_POINT('',#266);
#248=CIRCLE('',#267,16.);
#249=VERTEX_POINT('',#271);
#250=CIRCLE('',#272,13.5);
#251=VERTEX_POINT('',#276);
#252=CIRCLE('',#277,13.5);
#253=VERTEX_POINT('',#281);
#254=CIRCLE('',#282,10.5);
#255=VERTEX_POINT('',#286);
#256=CIRCLE('',#287,8.);
#257=VERTEX_POINT('',#291);
#258=CIRCLE('',#292,5.);
#259=VERTEX_POINT('',#296);
#260=CIRCLE('',#297,4.5);
#261=CARTESIAN_POINT('',(-23.2163735324878,5.52076239257337,0.));
#262=AXIS2_PLACEMENT_3D('',#263,#264,#265);
#263=CARTESIAN_POINT('',(1.07416053993009E-015,5.52076239257311,0.));
#264=DIRECTION('',(1.55675440569579E-017,1.,-0.));
#265=DIRECTION('',(-1.,1.55675440569579E-017,0.));
#266=CARTESIAN_POINT('',(-16.,-33.4792376074266,0.));
#267=AXIS2_PLACEMENT_3D('',#268,#269,#270);
#268=CARTESIAN_POINT('',(4.67026321708737E-016,-33.4792376074266,0.));
#269=DIRECTION('',(0.,1.,-0.));
#270=DIRECTION('',(-1.,0.,0.));
#271=CARTESIAN_POINT('',(-13.5,-36.4792376074266,0.));
#272=AXIS2_PLACEMENT_3D('',#273,#274,#275);
#273=CARTESIAN_POINT('',(4.20323689537863E-016,-36.4792376074266,0.));
#274=DIRECTION('',(1.55675440569579E-017,1.,-0.));
#275=DIRECTION('',(-1.,1.55675440569579E-017,0.));
#276=CARTESIAN_POINT('',(-13.5,-55.4792376074266,0.));
#277=AXIS2_PLACEMENT_3D('',#278,#279,#280);
#278=CARTESIAN_POINT('',(1.24540352455663E-016,-55.4792376074266,0.));
#279=DIRECTION('',(1.55675440569579E-017,1.,-0.));
#280=DIRECTION('',(-1.,1.55675440569579E-017,0.));
#281=CARTESIAN_POINT('',(-10.5,-58.4792376074266,0.));
#282=AXIS2_PLACEMENT_3D('',#283,#284,#285);
#283=CARTESIAN_POINT('',(7.78377202847895E-017,-58.4792376074266,0.));
#284=DIRECTION('',(1.55675440569579E-017,1.,-0.));
#285=DIRECTION('',(-1.,1.55675440569579E-017,0.));
#286=CARTESIAN_POINT('',(-8.,-58.4792376074266,0.));
#287=AXIS2_PLACEMENT_3D('',#288,#289,#290);
#288=CARTESIAN_POINT('',(7.78377202847895E-017,-58.4792376074266,0.));
#289=DIRECTION('',(1.55675440569579E-017,1.,-0.));
#290=DIRECTION('',(-1.,1.55675440569579E-017,0.));
#291=CARTESIAN_POINT('',(-5.,-62.4792376074266,0.));
#292=AXIS2_PLACEMENT_3D('',#293,#294,#295);
#293=CARTESIAN_POINT('',(1.55675440569578E-017,-62.4792376074266,0.));
#294=DIRECTION('',(1.55675440569579E-017,1.,-0.));
#295=DIRECTION('',(-1.,1.55675440569579E-017,0.));
#296=CARTESIAN_POINT('',(-4.5,-62.4792376074266,0.));
#297=AXIS2_PLACEMENT_3D('',#298,#299,#300);
#298=CARTESIAN_POINT('',(1.55675440569578E-017,-62.4792376074266,0.));
#299=DIRECTION('',(1.55675440569579E-017,1.,-0.));
#300=DIRECTION('',(-1.,1.55675440569579E-017,0.));
ENDSEC;
END-ISO-10303-21;
