ISO-10303-21;
HEADER;
FILE_DESCRIPTION (( 'STEP AP214' ),
    '1' );
FILE_NAME ('CTA12D-Z110-K02 Çàãëóøêà äëÿ äâóñòåííîé òðóáû d110.STEP',
    '2016-06-21T08:31:34',
    ( '' ),
    ( '' ),
    'SwSTEP 2.0',
    'SolidWorks 2014',
    '' );
FILE_SCHEMA (( 'AUTOMOTIVE_DESIGN' ));
ENDSEC;

DATA;
#1 = ADVANCED_FACE ( 'NONE', ( #183, #31 ), #106, .F. ) ;
#2 = CARTESIAN_POINT ( 'NONE',  ( 0.0000000000000000000, 0.0000000000000000000, -57.50000000000000000 ) ) ;
#3 = CLOSED_SHELL ( 'NONE', ( #49, #184, #203, #62, #206, #1, #202, #16, #56 ) ) ;
#4 = FACE_OUTER_BOUND ( 'NONE', #91, .T. ) ;
#5 = UNCERTAINTY_MEASURE_WITH_UNIT (LENGTH_MEASURE( 1.000000000000000100E-005 ), #85, 'distance_accuracy_value', 'NONE');
#6 = ORIENTED_EDGE ( 'NONE', *, *, #163, .F. ) ;
#7 = EDGE_LOOP ( 'NONE', ( #87 ) ) ;
#8 = AXIS2_PLACEMENT_3D ( 'NONE', #124, #158, #137 ) ;
#9 = CARTESIAN_POINT ( 'NONE',  ( 0.0000000000000000000, -1489.731922708085700, 0.0000000000000000000 ) ) ;
#10 = CARTESIAN_POINT ( 'NONE',  ( 0.0000000000000000000, 50.00000000000000000, 54.50000000000000000 ) ) ;
#11 = DIRECTION ( 'NONE',  ( -0.0000000000000000000, -1.000000000000000000, -0.0000000000000000000 ) ) ;
#12 = EDGE_CURVE ( 'NONE', #104, #104, #75, .T. ) ;
#13 = COLOUR_RGB ( '',0.7921568627450980000, 0.8196078431372548800, 0.9333333333333333500 ) ;
#14 = AXIS2_PLACEMENT_3D ( 'NONE', #102, #130, #171 ) ;
#15 = CARTESIAN_POINT ( 'NONE',  ( 57.50000000000000000, 50.00000000000000000, 0.0000000000000000000 ) ) ;
#16 = ADVANCED_FACE ( 'NONE', ( #4, #118 ), #220, .F. ) ;
#17 = DIRECTION ( 'NONE',  ( 0.0000000000000000000, 0.0000000000000000000, -1.000000000000000000 ) ) ;
#18 = APPLICATION_CONTEXT ( 'automotive_design' ) ;
#19 = DIRECTION ( 'NONE',  ( 0.0000000000000000000, -1.000000000000000000, -0.0000000000000000000 ) ) ;
#20 = DIRECTION ( 'NONE',  ( 0.0000000000000000000, 1.000000000000000000, 0.0000000000000000000 ) ) ;
#21 = ORIENTED_EDGE ( 'NONE', *, *, #209, .F. ) ;
#22 = EDGE_LOOP ( 'NONE', ( #92 ) ) ;
#23 = DIRECTION ( 'NONE',  ( -0.0000000000000000000, -1.000000000000000000, -0.0000000000000000000 ) ) ;
#24 = AXIS2_PLACEMENT_3D ( 'NONE', #135, #109, #55 ) ;
#25 = DIRECTION ( 'NONE',  ( 0.0000000000000000000, 0.0000000000000000000, -1.000000000000000000 ) ) ;
#26 = DIRECTION ( 'NONE',  ( 0.0000000000000000000, 1.000000000000000000, 0.0000000000000000000 ) ) ;
#27 = DIRECTION ( 'NONE',  ( 0.0000000000000000000, 0.0000000000000000000, -1.000000000000000000 ) ) ;
#28 = DIRECTION ( 'NONE',  ( 0.0000000000000000000, 0.0000000000000000000, -1.000000000000000000 ) ) ;
#29 = DIRECTION ( 'NONE',  ( -0.0000000000000000000, -1.000000000000000000, -0.0000000000000000000 ) ) ;
#30 = CARTESIAN_POINT ( 'NONE',  ( 56.00000000000000000, 0.0000000000000000000, 0.0000000000000000000 ) ) ;
#31 = FACE_OUTER_BOUND ( 'NONE', #73, .T. ) ;
#32 = ORIENTED_EDGE ( 'NONE', *, *, #163, .T. ) ;
#33 = AXIS2_PLACEMENT_3D ( 'NONE', #30, #43, #178 ) ;
#34 = APPLICATION_PROTOCOL_DEFINITION ( 'draft international standard', 'automotive_design', 1998, #18 ) ;
#35 = VERTEX_POINT ( 'NONE', #167 ) ;
#36 = ORIENTED_EDGE ( 'NONE', *, *, #155, .T. ) ;
#37 = MECHANICAL_DESIGN_GEOMETRIC_PRESENTATION_REPRESENTATION (  '', ( #96 ), #45 ) ;
#38 = FACE_OUTER_BOUND ( 'NONE', #189, .T. ) ;
#39 = DIRECTION ( 'NONE',  ( -0.0000000000000000000, -1.000000000000000000, -0.0000000000000000000 ) ) ;
#40 = ORIENTED_EDGE ( 'NONE', *, *, #127, .F. ) ;
#41 = FILL_AREA_STYLE ('',( #81 ) ) ;
#42 = VERTEX_POINT ( 'NONE', #97 ) ;
#43 = DIRECTION ( 'NONE',  ( 0.0000000000000000000, -1.000000000000000000, -0.0000000000000000000 ) ) ;
#44 = CIRCLE ( 'NONE', #168, 54.99999999999999300 ) ;
#45 =( GEOMETRIC_REPRESENTATION_CONTEXT ( 3 ) GLOBAL_UNCERTAINTY_ASSIGNED_CONTEXT ( ( #144 ) ) GLOBAL_UNIT_ASSIGNED_CONTEXT ( ( #117, #50, #195 ) ) REPRESENTATION_CONTEXT ( 'NONE', 'WORKASPACE' ) );
#46 = VERTEX_POINT ( 'NONE', #10 ) ;
#47 = SURFACE_STYLE_FILL_AREA ( #86 ) ;
#48 = DIRECTION ( 'NONE',  ( 0.0000000000000000000, 0.0000000000000000000, 1.000000000000000000 ) ) ;
#49 = ADVANCED_FACE ( 'NONE', ( #38, #93 ), #131, .F. ) ;
#50 =( NAMED_UNIT ( * ) PLANE_ANGLE_UNIT ( ) SI_UNIT ( $, .RADIAN. ) );
#51 = DIRECTION ( 'NONE',  ( 0.0000000000000000000, 1.000000000000000000, 0.0000000000000000000 ) ) ;
#52 = CARTESIAN_POINT ( 'NONE',  ( 0.0000000000000000000, 46.99999999999992900, -54.99999999999999300 ) ) ;
#53 = DIRECTION ( 'NONE',  ( 0.0000000000000000000, 0.0000000000000000000, 1.000000000000000000 ) ) ;
#54 = ORIENTED_EDGE ( 'NONE', *, *, #12, .F. ) ;
#55 = DIRECTION ( 'NONE',  ( 0.0000000000000000000, 0.0000000000000000000, -1.000000000000000000 ) ) ;
#56 = ADVANCED_FACE ( 'NONE', ( #57, #215 ), #101, .T. ) ;
#57 = FACE_OUTER_BOUND ( 'NONE', #188, .T. ) ;
#58 = VERTEX_POINT ( 'NONE', #52 ) ;
#59 = CARTESIAN_POINT ( 'NONE',  ( 0.0000000000000000000, 0.0000000000000000000, 0.0000000000000000000 ) ) ;
#60 = AXIS2_PLACEMENT_3D ( 'NONE', #59, #53, #77 ) ;
#61 =( GEOMETRIC_REPRESENTATION_CONTEXT ( 3 ) GLOBAL_UNCERTAINTY_ASSIGNED_CONTEXT ( ( #198 ) ) GLOBAL_UNIT_ASSIGNED_CONTEXT ( ( #149, #138, #115 ) ) REPRESENTATION_CONTEXT ( 'NONE', 'WORKASPACE' ) );
#62 = ADVANCED_FACE ( 'NONE', ( #199 ), #143, .T. ) ;
#63 = PRODUCT_DEFINITION_CONTEXT ( 'detailed design', #18, 'design' ) ;
#64 = PLANE ( 'NONE',  #33 ) ;
#65 = SHAPE_DEFINITION_REPRESENTATION ( #68, #214 ) ;
#66 = DIRECTION ( 'NONE',  ( 0.0000000000000000000, 0.0000000000000000000, -1.000000000000000000 ) ) ;
#67 = MECHANICAL_DESIGN_GEOMETRIC_PRESENTATION_REPRESENTATION (  '', ( #136 ), #61 ) ;
#68 = PRODUCT_DEFINITION_SHAPE ( 'NONE', 'NONE',  #134 ) ;
#69 = VERTEX_POINT ( 'NONE', #2 ) ;
#70 = AXIS2_PLACEMENT_3D ( 'NONE', #84, #20, #186 ) ;
#71 = CARTESIAN_POINT ( 'NONE',  ( 0.0000000000000000000, 46.99999999999992900, 0.0000000000000000000 ) ) ;
#72 = EDGE_LOOP ( 'NONE', ( #21 ) ) ;
#73 = EDGE_LOOP ( 'NONE', ( #177 ) ) ;
#74 = COLOUR_RGB ( '',0.7921568627450980000, 0.8196078431372548800, 0.9333333333333333500 ) ;
#75 = CIRCLE ( 'NONE', #8, 56.00000000000000000 ) ;
#76 = DIRECTION ( 'NONE',  ( 0.0000000000000000000, -1.000000000000000000, 0.0000000000000000000 ) ) ;
#77 = DIRECTION ( 'NONE',  ( 1.000000000000000000, 0.0000000000000000000, 0.0000000000000000000 ) ) ;
#78 = AXIS2_PLACEMENT_3D ( 'NONE', #160, #39, #25 ) ;
#79 = EDGE_CURVE ( 'NONE', #42, #42, #125, .T. ) ;
#80 = CIRCLE ( 'NONE', #78, 54.49999999999999300 ) ;
#81 = FILL_AREA_STYLE_COLOUR ( '', #74 ) ;
#82 = PRODUCT_RELATED_PRODUCT_CATEGORY ( 'part', '', ( #181 ) ) ;
#83 = FACE_OUTER_BOUND ( 'NONE', #146, .T. ) ;
#84 = CARTESIAN_POINT ( 'NONE',  ( 0.0000000000000000000, 46.99999999999992900, 0.0000000000000000000 ) ) ;
#85 =( LENGTH_UNIT ( ) NAMED_UNIT ( * ) SI_UNIT ( .MILLI., .METRE. ) );
#86 = FILL_AREA_STYLE ('',( #156 ) ) ;
#87 = ORIENTED_EDGE ( 'NONE', *, *, #79, .T. ) ;
#88 = SURFACE_SIDE_STYLE ('',( #204 ) ) ;
#89 = CARTESIAN_POINT ( 'NONE',  ( 0.0000000000000000000, 29.00000000000013500, 0.0000000000000000000 ) ) ;
#90 = FACE_OUTER_BOUND ( 'NONE', #7, .T. ) ;
#91 = EDGE_LOOP ( 'NONE', ( #132 ) ) ;
#92 = ORIENTED_EDGE ( 'NONE', *, *, #79, .F. ) ;
#93 = FACE_OUTER_BOUND ( 'NONE', #191, .T. ) ;
#94 = DIRECTION ( 'NONE',  ( 0.0000000000000000000, -1.000000000000000000, 0.0000000000000000000 ) ) ;
#95 = DIRECTION ( 'NONE',  ( 0.0000000000000000000, -0.0000000000000000000, 1.000000000000000000 ) ) ;
#96 = STYLED_ITEM ( 'NONE', ( #218 ), #112 ) ;
#97 = CARTESIAN_POINT ( 'NONE',  ( 0.0000000000000000000, 46.99999999999992900, 57.50000000000000000 ) ) ;
#98 = PRESENTATION_LAYER_ASSIGNMENT (  '', '', ( #136 ) ) ;
#99 = EDGE_LOOP ( 'NONE', ( #140 ) ) ;
#100 = CARTESIAN_POINT ( 'NONE',  ( 0.0000000000000000000, 28.00000000000002500, -56.00000000000000000 ) ) ;
#101 = TOROIDAL_SURFACE ( 'NONE', #70, 54.50000000000000000, 3.000000000000000000 ) ;
#102 = CARTESIAN_POINT ( 'NONE',  ( 0.0000000000000000000, 0.0000000000000000000, 0.0000000000000000000 ) ) ;
#103 = PRODUCT_CONTEXT ( 'NONE', #153, 'mechanical' ) ;
#104 = VERTEX_POINT ( 'NONE', #100 ) ;
#105 = AXIS2_PLACEMENT_3D ( 'NONE', #15, #187, #95 ) ;
#106 = CYLINDRICAL_SURFACE ( 'NONE', #24, 54.99999999999999300 ) ;
#107 = CARTESIAN_POINT ( 'NONE',  ( 0.0000000000000000000, 47.50000000000000000, -54.49999999999999300 ) ) ;
#108 = CARTESIAN_POINT ( 'NONE',  ( 54.99999999999999300, 47.50000000000000000, 0.0000000000000000000 ) ) ;
#109 = DIRECTION ( 'NONE',  ( -0.0000000000000000000, -1.000000000000000000, -0.0000000000000000000 ) ) ;
#110 = AXIS2_PLACEMENT_3D ( 'NONE', #212, #11, #182 ) ;
#111 = EDGE_LOOP ( 'NONE', ( #36 ) ) ;
#112 = MANIFOLD_SOLID_BREP ( 'Ñêðóãëåíèå2', #3 ) ;
#113 = EDGE_LOOP ( 'NONE', ( #123 ) ) ;
#114 = EDGE_CURVE ( 'NONE', #35, #35, #185, .T. ) ;
#115 =( NAMED_UNIT ( * ) SI_UNIT ( $, .STERADIAN. ) SOLID_ANGLE_UNIT ( ) );
#116 =( NAMED_UNIT ( * ) SI_UNIT ( $, .STERADIAN. ) SOLID_ANGLE_UNIT ( ) );
#117 =( LENGTH_UNIT ( ) NAMED_UNIT ( * ) SI_UNIT ( .MILLI., .METRE. ) );
#118 = FACE_OUTER_BOUND ( 'NONE', #152, .T. ) ;
#119 = AXIS2_PLACEMENT_3D ( 'NONE', #89, #94, #27 ) ;
#120 = AXIS2_PLACEMENT_3D ( 'NONE', #219, #76, #139 ) ;
#121 = DIRECTION ( 'NONE',  ( -0.0000000000000000000, -1.000000000000000000, -0.0000000000000000000 ) ) ;
#122 = PRESENTATION_STYLE_ASSIGNMENT (( #162 ) ) ;
#123 = ORIENTED_EDGE ( 'NONE', *, *, #114, .F. ) ;
#124 = CARTESIAN_POINT ( 'NONE',  ( 0.0000000000000000000, 28.00000000000002500, 0.0000000000000000000 ) ) ;
#125 = CIRCLE ( 'NONE', #110, 57.50000000000000000 ) ;
#126 = AXIS2_PLACEMENT_3D ( 'NONE', #200, #26, #48 ) ;
#127 = EDGE_CURVE ( 'NONE', #210, #210, #80, .T. ) ;
#128 =( NAMED_UNIT ( * ) PLANE_ANGLE_UNIT ( ) SI_UNIT ( $, .RADIAN. ) );
#129 = EDGE_CURVE ( 'NONE', #46, #46, #180, .T. ) ;
#130 = DIRECTION ( 'NONE',  ( -0.0000000000000000000, -1.000000000000000000, -0.0000000000000000000 ) ) ;
#131 = CYLINDRICAL_SURFACE ( 'NONE', #150, 56.00000000000000000 ) ;
#132 = ORIENTED_EDGE ( 'NONE', *, *, #155, .F. ) ;
#133 = FACE_OUTER_BOUND ( 'NONE', #99, .T. ) ;
#134 = PRODUCT_DEFINITION ( 'UNKNOWN', '', #190, #63 ) ;
#135 = CARTESIAN_POINT ( 'NONE',  ( 0.0000000000000000000, -1489.731922708085700, 0.0000000000000000000 ) ) ;
#136 = STYLED_ITEM ( 'NONE', ( #122 ), #214 ) ;
#137 = DIRECTION ( 'NONE',  ( 0.0000000000000000000, 0.0000000000000000000, -1.000000000000000000 ) ) ;
#138 =( NAMED_UNIT ( * ) PLANE_ANGLE_UNIT ( ) SI_UNIT ( $, .RADIAN. ) );
#139 = DIRECTION ( 'NONE',  ( 0.0000000000000000000, 0.0000000000000000000, -1.000000000000000000 ) ) ;
#140 = ORIENTED_EDGE ( 'NONE', *, *, #127, .T. ) ;
#141 = FACE_OUTER_BOUND ( 'NONE', #72, .T. ) ;
#142 = DIRECTION ( 'NONE',  ( 0.0000000000000000000, 0.0000000000000000000, -1.000000000000000000 ) ) ;
#143 = PLANE ( 'NONE',  #105 ) ;
#144 = UNCERTAINTY_MEASURE_WITH_UNIT (LENGTH_MEASURE( 1.000000000000000100E-005 ), #117, 'distance_accuracy_value', 'NONE');
#145 = ORIENTED_EDGE ( 'NONE', *, *, #12, .T. ) ;
#146 = EDGE_LOOP ( 'NONE', ( #151 ) ) ;
#147 = CYLINDRICAL_SURFACE ( 'NONE', #176, 57.50000000000000000 ) ;
#148 = PLANE ( 'NONE',  #207 ) ;
#149 =( LENGTH_UNIT ( ) NAMED_UNIT ( * ) SI_UNIT ( .MILLI., .METRE. ) );
#150 = AXIS2_PLACEMENT_3D ( 'NONE', #9, #29, #142 ) ;
#151 = ORIENTED_EDGE ( 'NONE', *, *, #209, .T. ) ;
#152 = EDGE_LOOP ( 'NONE', ( #40 ) ) ;
#153 = APPLICATION_CONTEXT ( 'automotive_design' ) ;
#154 = EDGE_LOOP ( 'NONE', ( #6 ) ) ;
#155 = EDGE_CURVE ( 'NONE', #58, #58, #44, .T. ) ;
#156 = FILL_AREA_STYLE_COLOUR ( '', #13 ) ;
#157 =( GEOMETRIC_REPRESENTATION_CONTEXT ( 3 ) GLOBAL_UNCERTAINTY_ASSIGNED_CONTEXT ( ( #5 ) ) GLOBAL_UNIT_ASSIGNED_CONTEXT ( ( #85, #128, #116 ) ) REPRESENTATION_CONTEXT ( 'NONE', 'WORKASPACE' ) );
#158 = DIRECTION ( 'NONE',  ( -0.0000000000000000000, -1.000000000000000000, -0.0000000000000000000 ) ) ;
#159 = FACE_BOUND ( 'NONE', #154, .T. ) ;
#160 = CARTESIAN_POINT ( 'NONE',  ( 0.0000000000000000000, 47.50000000000000000, 0.0000000000000000000 ) ) ;
#161 = AXIS2_PLACEMENT_3D ( 'NONE', #192, #23, #28 ) ;
#162 = SURFACE_STYLE_USAGE ( .BOTH. , #88 ) ;
#163 = EDGE_CURVE ( 'NONE', #170, #170, #201, .T. ) ;
#164 = ORIENTED_EDGE ( 'NONE', *, *, #129, .T. ) ;
#165 = CIRCLE ( 'NONE', #14, 57.50000000000000000 ) ;
#166 = APPLICATION_PROTOCOL_DEFINITION ( 'draft international standard', 'automotive_design', 1998, #153 ) ;
#167 = CARTESIAN_POINT ( 'NONE',  ( 0.0000000000000000000, 29.00000000000013500, -54.99999999999999300 ) ) ;
#168 = AXIS2_PLACEMENT_3D ( 'NONE', #71, #51, #172 ) ;
#169 = EDGE_LOOP ( 'NONE', ( #164 ) ) ;
#170 = VERTEX_POINT ( 'NONE', #205 ) ;
#171 = DIRECTION ( 'NONE',  ( 0.0000000000000000000, 0.0000000000000000000, -1.000000000000000000 ) ) ;
#172 = DIRECTION ( 'NONE',  ( 0.0000000000000000000, 0.0000000000000000000, -1.000000000000000000 ) ) ;
#173 = FACE_OUTER_BOUND ( 'NONE', #208, .T. ) ;
#174 = CONICAL_SURFACE ( 'NONE', #119, 54.99999999999999300, 0.7853981633974482800 ) ;
#175 = ORIENTED_EDGE ( 'NONE', *, *, #129, .F. ) ;
#176 = AXIS2_PLACEMENT_3D ( 'NONE', #216, #121, #66 ) ;
#177 = ORIENTED_EDGE ( 'NONE', *, *, #114, .T. ) ;
#178 = DIRECTION ( 'NONE',  ( 0.0000000000000000000, 0.0000000000000000000, -1.000000000000000000 ) ) ;
#179 = AXIS2_PLACEMENT_3D ( 'NONE', #213, #196, #217 ) ;
#180 = CIRCLE ( 'NONE', #126, 54.50000000000000000 ) ;
#181 = PRODUCT ( 'CTA12D-Z110-K02 Çàãëóøêà äëÿ äâóñòåííîé òðóáû d110', 'CTA12D-Z110-K02 Çàãëóøêà äëÿ äâóñòåííîé òðóáû d110', '', ( #103 ) ) ;
#182 = DIRECTION ( 'NONE',  ( 0.0000000000000000000, 0.0000000000000000000, 1.000000000000000000 ) ) ;
#183 = FACE_OUTER_BOUND ( 'NONE', #111, .T. ) ;
#184 = ADVANCED_FACE ( 'NONE', ( #83, #159 ), #64, .T. ) ;
#185 = CIRCLE ( 'NONE', #120, 54.99999999999999300 ) ;
#186 = DIRECTION ( 'NONE',  ( 0.0000000000000000000, 0.0000000000000000000, 1.000000000000000000 ) ) ;
#187 = DIRECTION ( 'NONE',  ( 0.0000000000000000000, 1.000000000000000000, 0.0000000000000000000 ) ) ;
#188 = EDGE_LOOP ( 'NONE', ( #175 ) ) ;
#189 = EDGE_LOOP ( 'NONE', ( #32 ) ) ;
#190 = PRODUCT_DEFINITION_FORMATION_WITH_SPECIFIED_SOURCE ( 'ANY', '', #181, .NOT_KNOWN. ) ;
#191 = EDGE_LOOP ( 'NONE', ( #54 ) ) ;
#192 = CARTESIAN_POINT ( 'NONE',  ( 0.0000000000000000000, 0.0000000000000000000, 0.0000000000000000000 ) ) ;
#193 = SURFACE_STYLE_USAGE ( .BOTH. , #194 ) ;
#194 = SURFACE_SIDE_STYLE ('',( #47 ) ) ;
#195 =( NAMED_UNIT ( * ) SI_UNIT ( $, .STERADIAN. ) SOLID_ANGLE_UNIT ( ) );
#196 = DIRECTION ( 'NONE',  ( -0.0000000000000000000, -1.000000000000000000, -0.0000000000000000000 ) ) ;
#197 = FACE_BOUND ( 'NONE', #113, .T. ) ;
#198 = UNCERTAINTY_MEASURE_WITH_UNIT (LENGTH_MEASURE( 1.000000000000000100E-005 ), #149, 'distance_accuracy_value', 'NONE');
#199 = FACE_OUTER_BOUND ( 'NONE', #169, .T. ) ;
#200 = CARTESIAN_POINT ( 'NONE',  ( 0.0000000000000000000, 50.00000000000000000, 0.0000000000000000000 ) ) ;
#201 = CIRCLE ( 'NONE', #161, 56.00000000000000000 ) ;
#202 = ADVANCED_FACE ( 'NONE', ( #173, #197 ), #174, .F. ) ;
#203 = ADVANCED_FACE ( 'NONE', ( #90, #141 ), #147, .T. ) ;
#204 = SURFACE_STYLE_FILL_AREA ( #41 ) ;
#205 = CARTESIAN_POINT ( 'NONE',  ( 0.0000000000000000000, 0.0000000000000000000, -56.00000000000000000 ) ) ;
#206 = ADVANCED_FACE ( 'NONE', ( #133 ), #148, .T. ) ;
#207 = AXIS2_PLACEMENT_3D ( 'NONE', #108, #19, #17 ) ;
#208 = EDGE_LOOP ( 'NONE', ( #145 ) ) ;
#209 = EDGE_CURVE ( 'NONE', #69, #69, #165, .T. ) ;
#210 = VERTEX_POINT ( 'NONE', #107 ) ;
#211 = PRESENTATION_LAYER_ASSIGNMENT (  '', '', ( #96 ) ) ;
#212 = CARTESIAN_POINT ( 'NONE',  ( 0.0000000000000000000, 46.99999999999992900, 0.0000000000000000000 ) ) ;
#213 = CARTESIAN_POINT ( 'NONE',  ( 0.0000000000000000000, 46.99999999999992900, 0.0000000000000000000 ) ) ;
#214 = ADVANCED_BREP_SHAPE_REPRESENTATION ( 'CTA12D-Z110-K02 ¦ðóûº°úð ôû  ôòº¸ªõýýþù ª¨ºñv d110', ( #112, #60 ), #157 ) ;
#215 = FACE_OUTER_BOUND ( 'NONE', #22, .T. ) ;
#216 = CARTESIAN_POINT ( 'NONE',  ( 0.0000000000000000000, -1489.731922708085700, 0.0000000000000000000 ) ) ;
#217 = DIRECTION ( 'NONE',  ( 0.0000000000000000000, 0.0000000000000000000, -1.000000000000000000 ) ) ;
#218 = PRESENTATION_STYLE_ASSIGNMENT (( #193 ) ) ;
#219 = CARTESIAN_POINT ( 'NONE',  ( 0.0000000000000000000, 29.00000000000013500, 0.0000000000000000000 ) ) ;
#220 = TOROIDAL_SURFACE ( 'NONE', #179, 54.49999999999999300, 0.5000000000000000000 ) ;
ENDSEC;
END-ISO-10303-21;
